Oops, an error
Loading. Please wait.

Death Of An Interior Decorator Tab

version 1
version 1

Whole song

Interactive

7,186 views 24 this week
2 commentsread comments
1 2 3 4 5
accurate
x 9
add to favorites
launch autoscroll
font size
0
reset
how to read this tab
guitar tuner
Tab Pro tools
  • play this tab
  • loop segment
  • change instrument
  • show fretboard
  • metronome
Autoscroll
slow
fast
+/-
esc
set tempo
stop
Contributor
Death Cab for Cutie
"Death of an Interior Decorator"



intro/verse


 Bb           Eb Bb Bb5          Eb Eb Bb
e----------------------------------------|
b-3----------4--4-3--------------4--4--3-|
g-3----------3--3-3--3-----------3--3--3-|
d-3---0-3-0--1--1-3--3----0-3-0--1--1--3-|
a-1--1-1----------1--1---1-1-----------1-|
e---3-------------------3----------------|


chorus 1


F   D7


e--------------|
b--------------|
g-2--5---------|
d-3--4---------|
a-3--5---------|
e-1------------|


chorus 2


F   D7  Bb     Eb

[ Tab from: 
http://www.guitartabs.cc/tabs/d/death_cab_for_cutie/death_of_an_interior_decorator_tab.html ]
e--------------------|
b--------------------|
g-2--5---------------|
d-3--4---0-0----0-0--|
a-3--5--1-1-0--6-6-6-|
e-1------------------|


e---------|
b---------|
g-2--5----|
d-3--4----|
a-3--5----|
e-1-------|


bridge (the girls were all there)


e--------1-------------------|
b----1-3--3-----3--1--4------|
g--3--3-3--3--3--3--3--3-----|
d-1-1--1-1---0-0--0--0--0----|
a----------------------------|
e----------------------------|


and it felt just like falling in love again...


 Cm  Gm  F G
e------------|
b-4----------|
g-5--3--2--4-|
d-5--5--3--5-|
a-3--5--3--5-|
e----3--1--3-|


and it felt like falling in love...


 Cm  Gm  F Eb
e-----------------------|
b-4---------4--4--4--4--|
g-5--3--2----3--3--3--3-|
d-5--5--3-----1--1--1---|
a-3--5--3---------------|
e----3--1---------------|
comments
print report bad tab
2 comments total.
+1 reply
Lemonworm wrote on October 14 2012, 10:39 pm

almost perfect man, The only thing missing is the lead part during the verse, otherwise awesome work I have no idea why you were rated down before!

0 reply
sixstringtheory wrote on September 12 2015, 10:37 am

Here's the lead fill. Maybe not the best fingering, but I found part of this from another website and figured out the rest on my own.


e------------------------------
B-6-6-6-8-10-8-4-4-4-6-6-6-6---
G--7-7-7-7--7-7-7-7-7-7-7-7-7--
D------------------------------
A------------------------------
E------------------------------

e------------------------------
B-6-6-6-8-10-8-4-4-4-6---------
G--7-7-7-7--7-7-7-7-7-7-5-7-3--
D------------------------------
A------------------------------
E------------------------------

I want to post or [tab]
guest
You may want to rate the tab now too:
select rating
Please do not post tabs as comments. Select "correction" instead!