Oops, an error
Loading. Please wait.

Different Names For The Same Things Bass Tab

1,992 views 1 this week
1 commentread comment
1 2 3 4 5
2 more votes to show rating
add to favorites
launch autoscroll
font size
0
reset
guitar tuner
Autoscroll
slow
fast
+/-
esc
set tempo
stop
Help us to improve Ultimate-Guitar.com Take our survey!
×
Author
Death Cab For Cutie - Different Names for the Same Thing

This song is easy to play but the structure is quite confusing
so I thought I'd lay it out here. I've put down the amount of times
each part plays but also the time each part end in case your playing
along with the track and get a bit lost.

Let me know if you have any comments or corrections.

The Bass only comes in at 2 mins 18 seconds.

Main Riff:

G|---------------------------|
D|----4-----------4--4-------|
A|-5-5-5--5-5--5-5-5--5-4h5--|
E|---------------------------|

Part 2: Partial Change

G|-------------------------------------|--------------------------|
D|-9-9-9-9-9-9-------------5-5-5-5-5-5-|----4-----------4--4------|
A|-------------9-9-9-9-9-9-------------|-5-5-5--5-5--5-5-5--5-4h5-|
E|-------------------------------------|--------------------------|

Part 3: Full Change

G|-------------------------------------------------|
D|-9-9-9-9-9-9-------------5-5-5-5-5-5-7-7-7-7-7-8-|
A|-------------9-9-9-9-9-9-------------------------|
E|-------------------------------------------------|


Structure:

Main Riff x 10
til 3.00 (When Vocals Come In)

Part 2: Partial Change x 2
til 3.21

Full Change x 3
til 3.46

Partial Change x 1
til 3.57

Main Riff x 1
til 4.02

Partial Change x 2
til 4.23

Full Change x 1
til 4.33

Partial Change x 1
til 4.42

Main Riff x 3
til end
Suggest correction
Give kudos to tab author, rate the tab!
1 2 3 4 5
comments
print report bad tab
1 comment total.
0 reply
ChrisNS 131 Nov 26, 2011 08:58 PM

In the main riff ignore the second '4' as it appears to be a typo so it would look like the below.


G|---------------------------|
D|----4--------------4-------|
A|-5-5-5--5-5--5-5-5--5-4h5--|
E|---------------------------|

guest
You may want to rate the tab now too:
select rating
Wanna post a correction for this tab? Suggest correction