Oops, an error
Loading. Please wait.

Doors Unlocked And Open Bass

version 1
version 1

Whole song

Interactive

2,349 views 1 this week
no commentswrite comment
1 2 3 4 5
x 3
add to favorites
×
Save as Personal and add changes to this tab that will be seen only by you. Learn more ›
×
You can save this tab as Personal to edit and correct it or add notes. All changes will be seen only by you. Learn more »
save as personal
new!
launch autoscroll
font size
0
reset
guitar tuner
Autoscroll
slow
fast
+/-
esc
set tempo
stop
Author
DOORS UNLOCKED AND OPEN - Death Cab for Cutie
Tabbed By: CSC      Tuning: EADG


Intro  (0:56)
G|-|--------------9-|----------------|-----------------|----7--7-7-7-|
D|2/7-7-7-7-7-7-7---|-7-\5-/7--7-7-7-|7-7-7-7-7-7-7-10-|-7-----------|
A|-|----------------|----------------|-----------------|-------------|
E|-|----------------|----------------|-----------------|-------------|

Verse  (1:03)
G|--------------9-|----------------|-----------------|----7--7-7-7-|
D|7-7-7-7-7-7-7---|-7------7--7-7-7|7-7-7-7-7-7-7-10-|-7-----------|
A|----------------|----10----------|-----------------|-------------|
E|----------------|----------------|-----------------|-------------|

Verse  x2

Pre-Chorus 1  (1:22)
G|----------------|----------------|----------------|----------------|
D|----------------|----------------|----------------|----------------|
A|9-9-9-9-9-9-9-9-|8-8-8-8-8-8-8-8-|5-5-5-5-5-5-5-5-|3-3-3-3-3-3-3-3-|
E|----------------|----------------|----------------|----------------|

Verse         (1:28) x4
Pre-Chorus 1  (1:55)
Verse         (2:02) x4

Pre-Chorus 2  (2:28)
G|----------------|---------------|
D|----------------|-------10------|
A|9-9-9-9-9-9-9-9-|8-8--8------10\|
E|----------------|---------------|

Chorus 1 (2:32)
G|----------------|----------------|----------------|----------------|
D|----------------|----------------|----------------|----------------| x3
A|3-3-3-3-3-3-3-3-|2-2-2-2-2-2-2-2-|0-0-0-0-0-0-0-0-|8-8-8-8-8-8-8-8-|
E|----------------|----------------|----------------|----------------|
 (2:51)
G|----------------|----------------|----------------|----------------|
D|----------------|----------------|----------------|----------------|
A|0-0-0-0-0-0-0-0-|7-7-7-7-7-7-7-7-|8-8-8-8-8-8-8-8-|8-8-8-8-8-8-8-8-|
E|----------------|----------------|----------------|----------------|

Outro  (2:57)
G|----------------|----------------|
D|----------------|----------------|
A|8-8-8-8-8-8-8-8-|8-8-8-8--5--3---|
E|----------------|----------------|

REST

Intro  (3:12)
Verse  (3:20) x3

Pre-Chorus 3  (3:40)
G|----------------|-----------------|
D|----------------|------10-10-10---|
A|9-9-9-9-9-9-9-9-|8-8------------8\|
E|----------------|-----------------|

Chorus 1  (3:43)

Chorus 2  (4:09)
G|----------------|----------------|----------------|----------------|
D|----------------|----------------|----------------|----------------| x3
A|3-3-3-3-3-3-3-3-|2-2-2-2-2-2-2-2-|0-0-0-0-0-0-0-0-|8-8-8-8-8-8-8-8-|
E|----------------|----------------|----------------|----------------|
 (4:29)
G|----------------|----------------|----------------|----------------|
D|----------------|----------------|----------------|----------------|
A|3-3-3-3-3-3-3-3-|0-0-0-0-0-0-0-0-|7-7-7-7-7-7-7-7-|8-8-8-8-8-8-8-8-|
E|----------------|----------------|----------------|----------------|

Chorus 2  (4:35)  x2

Outro  (5:28)
G|----------------|----------------|------------------|
D|----------------|----------------|------------------|
A|8-8-8-8-8-8-8-8-|8-8-8-8-8-8-8-8-|8-8-8-8-8-8-8-8\3-|
E|----------------|----------------|------------------|
Suggest correction
Give kudos to tab author, rate the tab!
1 2 3 4 5
comments
print report bad tab
guest
You may want to rate the tab now too:
select rating
Wanna post a correction for this tab? Suggest correction