Oops, an error
Loading. Please wait.

Employment Pages Tab

version 1
version 1

Whole song

8,916 views 12 this week
1 commentread comment
1 2 3 4 5
excellent!
x 6
add to favorites
launch autoscroll
font size
0
reset
how to read this tab
guitar tuner
Tab Pro tools
  • play this tab
  • loop segment
  • change instrument
  • show fretboard
  • metronome
×
Best way to learn
"Employment Pages"
Autoscroll
slow
fast
+/-
esc
set tempo
stop
Contributor
-------------------------------------------------------------------------------
                             THE EMPLOYMENT PAGES - Death Cab for Cutie
-------------------------------------------------------------------------------
Tabbed by: A.J. Conner
Email: ajconner123@gmail.com

Tuning: Standard

Let me know what you think. :)

| s  slide
| #  tremolo picking

  Main Riff
e|---------------------------------------------------------------------------|
B|---5--5--5--5--------------------------------------------------------------|
G|--7--7--6--6---6--6--6--6--------------------------------------------------|
D|--------------7--7--5--5---------------------------------------------------|
A|---------------------------------------------------------------------------|
E|---------------------------------------------------------------------------|
   "We spread out, and occupy the cracks..."
  
  Main Riff (Guitar 2's harmonies, don't enter until 2nd verse)
e|---5--5--5--5--------------------------------------------------------------|
B|--7--7--5--5---5--5--5--5--------------------------------------------------|
G|--------------6--6--4--4---------------------------------------------------|
D|---------------------------------------------------------------------------|
A|---------------------------------------------------------------------------|
E|---------------------------------------------------------------------------|
 Chorus: 
e|---------------------0--------------------------0--------------------------|
B|-----------------------0---7----------------------0------------------------|
G|---6--------6------------6----6--------6------------6s11s6-6---------------|
D|--0--0--4-4---4--4s7---------0--0--4-4---4--4s7----------------------------|
A|---------------------------------------------------------------------------|
E|---------------------------------------------------------------------------|
"It's so appropriate, the way we amplify the sound..."
  
Post-chorus riff - no vocals
e|---------------------------------------------------------------------------|
B|---------5---------5--------------5--------5-------------------------------|
G|---------6---------6s11s6-6-------6--------6s11s6-6------------------------|
D|----4s6-------4s6------------4s6-------4s6---------------------------------|
A|--0---------0--------------0---------0-------------------------------------|
E|---------------------------------------------------------------------------|

  Post-chorus riff cont.
e|---------------------------------------------------------------------------|
B|-----------------------------------------5-----------5---------------------|
G|----6------6-------6------6--------------6-----------6s11s6-6--------------|
D|------0------0-------0------0-------4s6---------4s6------------------------|
A|--7-----7------7-5-----5------5---0-----------0----------------------------|
E|---------------------------------------------------------------------------|

  Bridge: play the 2nd half of the post-chorus riff. ("You were gone, and 
  I was home...")
   Then:
e|---------------------------------------------------------------------------|
B|---------------------------------------------------------------------------|
G|---------------------------------------------------------------------------|
D|----7--7--7--7--7--7--7--7--7--7--7--7--7--7--7--7-------------------------|
A|--6--6--6--6--5--5--5--5--6--6--6--6--5--5--5--5---------------------------|
E|---------------------------------------------------------------------------|
  "Calling around, but nothing was found worthwhile."

  Here Guitar Two plays:
e|---------------------------------------------------------------------------|
B|--#4-------#5----------#4--------#5----------------------------------------|
G|---------------------------------------------------------------------------|
D|---------------------------------------------------------------------------|
A|---------------------------------------------------------------------------|
E|---------------------------------------------------------------------------|
  
Interlude (Guitar One):
e|------------------2----2----2----------------------------------------------|
B|---------5----------1----1----1--------------------------------------------|
G|---------6s4-4s2-----------------------------------------------------------|
D|----4s6--------------------------------------------------------------------|
A|--0------------------------------------------------------------------------|
E|---------------------------------------------------------------------------|

  Guitar Two:
e|---------------------------------------------------------------------------|
B|--#10s#5---------#7--------End:-#5-----------------------------------------|
G|---------------------------------------------------------------------------|
D|---------------------------------------------------------------------------|
A|---------------------------------------------------------------------------|
E|---------------------------------------------------------------------------|
  

Song order:

Main riff -4x
Chorus riff -2x
Post-chorus riff 
Main riff -4x
Chorus riff -2x
Post chorus
Bridge
Interlude -4x
Main riff -4x
END.


===============================================================================
comments
print report bad tab
1 comment total.
0 reply
neilshweky wrote on February 26 2015, 09:33 pm

Love the riff, great song.

I want to post or [tab]
guest
You may want to rate the tab now too:
select rating
Please do not post tabs as comments. Select "correction" instead!