Oops, an error
Loading. Please wait.

Expo 86 Bass Tab

version 1
version 1

Whole song

Interactive

2,365 views 1 this week
no commentswrite comment
1 2 3 4 5
1 last vote to show rating
add to favorites
launch autoscroll
font size
0
reset
guitar tuner
Autoscroll
slow
fast
+/-
esc
set tempo
stop
Help us to improve Ultimate-Guitar.com Take our survey!
×
Author
Difficulty
novice
Band: Death Cab For Cutie
Song: Expo '86
Album: Transatlanticism
Tabbed by: choke383
Normal Tuning: GDAE


G|----------------|
D|----------------|
A|-------4---0----|
E|2---------------|


0:11      play open E's threw this part hole them long
G|--------------------------------------------------------------------|
D|--------------------------------------------------------------------|
A|--------------------------------------------------------------------|
E|0~~~~~~-----------------------0~~~~~~-------------------------------|x3


0:57
G|-----------------------------------|
D|-----------------------------------|
A|-----------------------------------|
E|7-7-7-7-7-7-7-7-7-7-7-7-7-7-7-7-7--|


1:06
G|--------------------------------------------------------------------|
D|--------------------------------------------------------------------|
A|--------------------------------------------------------------------|
E|0~~~~~~-----------------------0~~~~~~-------------------------------|x3


1:52
G|-------------------------------------------------------------------------|
D|-------------------------------------------------------------------------|
A|-------------------------------------------------------------------------|
E|7-7-7-7-7-7-7-7-7-7-7-7-7-7-7-7-7-7-9-9-9-9-9-9-9-9-9-9-9-9-9-9-9-9-9-9--|x2


2:29
G|-------------------------------|
D|-------------------------------|
A|-------------------------------|
E|2--2--22-0-0-0-5--5--55-0-0-0--|x2


2:38
G|------------------------------------------------------------------------------------|
D|------------------------------------------------------------------------------------|
A|------------------------------------------4-4-4--4-4-4--0-0-0--0-0-0--0-0-0--0-0-0--|
E|0-0-0--0-0-0--0-0-0--0-0-0--2-2-2--2-2-2--------------------------------------------|


2:52
G|--------------------------------------------------------------------|
D|--------------------------------------------------------------------|
A|--------------------------------------------------------------------|
E|0~~~~~~-----------------------0~~~~~~-------------------------------|x3



Any comments, questions or jokes send to style444@hotmail.com
Suggest correction
Give kudos to tab author, rate the tab!
1 2 3 4 5
comments
print report bad tab
guest
You may want to rate the tab now too:
select rating
Wanna post a correction for this tab? Suggest correction