Oops, an error
Loading. Please wait.

Expo 86 Tab

version 2
version 2

Whole song

Interactive

5,843 views 9 this week
1 commentread comment
1 2 3 4 5
2 more votes to show rating
add to favorites
launch autoscroll
font size
0
reset
how to read this tab
guitar tuner
Autoscroll
slow
fast
+/-
esc
set tempo
stop
Help us to improve Ultimate-Guitar.com Take our survey!
×
Author
Difficulty
intermediate
Death Cab For Cutie - Expo '86

tabbed by Dayle Hobson

Tuning : Standard

[ Intro ]


e|---2----------------0-|
B|---2-------10-------0-|
G|-----------9--------9-|
D|-4---------7--------9-|
A|-----------7--------7-|
E|--------------------0-|


[ Verse Guitar One ]


e|-----------------0-|
B|-------2-----------|
G|--1---------2------|
D|-------------------|
A|------4---------4--|
E|-0---------4-------|


[ Verse Guitar Two ]


e|----------------------|
B|-----------12---------|
G|-13---11---14---11/13-|
D|-14---14--------------|
A|----------------9/-11-|
E|----------------------|


[ Chorus ]


e|-----------------------------------|
B|-----------------------------------|
G|-444444444444/6666/888888888888888-|
D|-xxxxxxxxxxxx-xxxx-xxxxxxxxxxxxxxx-|
A|-222222222222/4444/666666666666666-|
E|-----------------------------------|


[ Chorus Part 2 ] 


e|--------------------------------------------------------------|
B|--------------------------------------------------------------|
G|-444444444444/6666/888888888888/6666/999999999999/11-11-11-11-|
D|-xxxxxxxxxxxx-xxxx-xxxxxxxxxxxx-xxxx-xxxxxxxxxxxx-x--x--x--x--|
A|-222222222222/4444/666666666666/4444/777777777777/9--9--9--9--|
E|--------------------------------------------------------------|

(lets pretend the following 1's are 11's)

e|--------------------------------------------------------|
B|--------------------------------------------------------|
G|-888888888888/1111111111111111111111111111/-13-13-13-13-|
D|-xxxxxxxxxxxx-xxxxxxxxxxxxxxxxxxxxxxxxxxxx--x--x--x--x--|
A|-666666666666/9999999999999999999999999999/-11-11-11-11-|
E|--------------------------------------------------------|

e|-------------------------------------------|
B|-------------------------------------------|
G|-999999999999/11-11-11-11/8888888888888888-|
D|-xxxxxxxxxxxx-x--x--x--x--xxxxxxxxxxxxxxxx-|
A|-777777777777/9--9--9--9-/6666666666666666-|
E|-------------------------------------------|


[ Bridge ]


e|-----------------------------------------|
B|-----------------------------------------|
G|--8-8-8-8-8-9-9-14-14-14-14-14-14-13-13--|
D|--x-x-x-x-x-x-x-x--x--x--x--x--x--x--x---|
A|--6-6-6-6-6-7-7-12-12-12-12-12-12-11-11--|
E|-----------------------------------------|


e|-----------------------------------------|
B|-----------------------------------------|
G|--8-8-8-8-8-9-9-14-14-14-14-14-14-16-16--|
D|--x-x-x-x-x-x-x-x--x--x--x--x--x--x--x---|
A|--6-6-6-6-6-7-7-12-12-12-12-12-12-14-14--|
E|-----------------------------------------|


e|-----0------0------0------0------2------2----------------------------|
B|-----0------0------0------0------2------2----------------------------|
G|-----9------9------9------9------3------3--99999999/6666666666666666-|
D|-----9------9------9------9------4------4--xxxxxxxx-xxxxxxxxxxxxxxxx-|
A|-----7------7------7------7------4------4--77777777/4444444444444444-|
E|-0-0----0-0----0-0----0-0----2-2----2-2------------------------------|



e|-0--------------0-|
B|-0--------------0-|
G|-1--------------9-|
D|-2--------------9-|
A|-2--------------7-|
E|-0--------------0-|




x - Dead Note
Suggest correction
Give kudos to tab author, rate the tab!
1 2 3 4 5
comments
print report bad tab
1 comment total.
+1 reply
TeleJake 10 May 09, 2013 05:57 PM



[ Verse Guitar One ]

e|-----------------0-|
B|-------------------|
G|--1----2-----------|
D|------------2------|
A|------4---------4--|
E|-0---------4-------|

guest
You may want to rate the tab now too:
select rating
Wanna post a correction for this tab? Suggest correction