Oops, an error
Loading. Please wait.

Good Help Is So Hard To Find tab

1,904 views 3 this week
1 commentread comment
1 2 3 4 5
x 7
add to favorites
×
Save as Personal and add changes to this tab that will be seen only by you. Learn more ›
×
You can save this tab as Personal to edit and correct it or add notes. All changes will be seen only by you. Learn more »
launch autoscroll
font size
0
reset
how to read this tab
guitar tuner
edit
Autoscroll
slow
fast
+/-
esc
set tempo
stop
Author
Difficulty
I was shocked that there wasn't a tab for this song yet! Hope this helps!

Standard Tuning no capo

/ = Slide


INTRO

e|-----------------------------------------------------|
B|-----------------------------------------------------|
G|------14-------11----9---------9------11-------------|
D|-9/12-----9/11-----9---------7----7/9-----7/11-------|
A|-----------------------------------------------------|
E|-----------------------------------------------------|

e|----------------------------------------|
B|----------------------------------------|
G|---9---7--------------------------------|
D|-7---7---7/11------4/7--4/9--7/11-------|
A|----------------------------------------|
E|----------------------------------------|



BRDIGE after 1st Chorus

e|-----------------------------------------------------|
B|-----------------------------------------------------|
G|------14-------11----9---------9------11-------------|
D|-9/12-----9/11-----9---------7----7/9-----7/11-------|
A|-----------------------------------------------------|
E|-----------------------------------------------------|


Tag after last Chorus

e|-----------------------------------------------------|
B|-----------------------------------------------------|
G|------14-------11----9---------9------11-------------|
D|-9/12-----9/11-----9---------7----7/9-----7/11-------|
A|-----------------------------------------------------|
E|-----------------------------------------------------|

e|----------------------------------------|
B|----------------------------------------|
G|---9---7--------------------------------|
D|-7---7---7/11------4/7--4/9--7/11-------|
A|----------------------------------------|
E|----------------------------------------|


Still working on the Solo. I have no idea what strange chords are being played on the Chorus, and then
the picking part. Hopefully someone can figure that out. 

The other guitar is pretty much just palm muting the following during the intro and verses:

INTRO

e|----------------------------|
B|-10-10---10-10---10-10------|
G|----------------------------| 2X
D|----------------------------|
A|----------------------------|
E|----------------------------|
(Palm Muted)

VERSE

e|--------------------------|
B|--------------------------|
G|--------------------------|
D|-7-7-7---7-7-7---7-7------| 4X
A|--------------------------|
E|--------------------------|
(Palm Muted)

e|--------------------------|
B|--------------------------|
G|--------------------------|
D|-4-4-4---4-4-4---4-4------| 4X
A|--------------------------|
E|--------------------------|
(Palm Muted)


More coming soon!

            
            
Suggest correction
Creating personal tab
Creating personal tab
You can edit any tab online and save it as your Personal.

You can edit, replace or remove any tab part or add personal notes – all changes will be seen only by you.

Personal tabs can be accessed anytime from any device, even offline.
Learn more »
comments
print report bad tab
1 comment total.
0 reply
Emajor7 121 Feb 29, 2016 06:24 PM

Intro actually goes like this:

e|-----------------------------------------------------|
B|-----------------------------------------------------|
G|------14----11----9---------9------9/11--------------|
D|-9/11-----7-----7---------7------7--------7/11-------|
A|-----------------------------------------------------|
E|-----------------------------------------------------|

e|----------------------------------------|
B|----------------------------------------|
G|---9---7--------------------------------|
D|-4---4---4/11------4/7--4/9--4/11-------|
A|----------------------------------------|
E|----------------------------------------|

So that means the "bridge" after 1st chorus is actually this:

e|-----------------------------------------------------|
B|-----------------------------------------------------|
G|------14----11----9---------9------9/11--------------|
D|-9/11-----7-----7---------7------7--------7/11-------|
A|-----------------------------------------------------|
E|-----------------------------------------------------|

guest
You may want to rate the tab now too:
select rating
Wanna post a correction for this tab? Suggest correction