Oops, an error
Loading. Please wait.

Grapevine Fires Bass Tab

version 1
version 1

Whole song

Interactive

7,056 views 6 this week
no commentswrite comment
1 2 3 4 5
excellent!
x 9
add to favorites
launch autoscroll
font size
0
reset
guitar tuner
Autoscroll
slow
fast
+/-
esc
set tempo
stop
Help us to improve Ultimate-Guitar.com Take our survey!
×
-------------------------------------------------------------------------------
			     Grapevine Fires - Death Cab For Cutie
-------------------------------------------------------------------------------

Tabbed By : Neil Simpson
e-mail: beardedbelly@hotmail.com

Great chilled out tune by death cab, one of my faves on the album. 
Nice and easy song to play. As always with tab listen to the record to get the timing. 
Most notes are only hit once and held for long durations.

 
Tuning: Standard

Bass enters at 0:23
G|-----------------------------------------------------------|
D|-------------8----------------------------------8----------|
A|-3------6-----------1--------------3-----5--6---------1----|
E|---------------------------1-------------------------------|

Chorus > 0:39                                                                              
G|----------------------------------------------------------:------|
D|-------------8----------------------------------8---------:------|
A|-3----5-6-----------1--------------3--------6---------1---:-0----|   x2
E|---------------------------1------------------------------:----3-|
"Burn..."                                                   1st time only

Verse 2 > 1:10
G|----------------------------------------------------------:-------:---|
D|-------------8----------------------------------8---------:-------:---|
A|-3------6-----------1--------------3------5-6---------1---:-0-----:---|  x2
E|---------------------------1------------------------------:----3--:-1-|
			                                      		                  1st 2nd

2nd chorus > 1:41
G|----------------------------------------------------:------------:----|
D|-------------8----------------------------------8---:------------:----|
A|-3----5-6-----------1--------------3------5-6-------:-1----0-----:-1--|  x2
E|---------------------------1------------------------:---------3--:----|
			                                                     1st           2nd  
Break >2:12
G|----------------------------------------------------------------------|
D|----------------------------------------------------------------------|
A|--5-----6-----1-----3-----6-----------5-----6-----1-----3-----5-6-----|
E|--------------------------------3-----------------------------------1-|
Let ring through out

No bass between 2:43>2:59

2:59
G|---------------------------------------:----3-------:---------:-------|
D|----------8--------------------8-------:--3----1----:-------5-:-------|
A|--3----6-----1--------3----5-6----1--1-:---------1--:--0------:--1--1-| x3
E|------------------1--------------------:------------:----3----:-------|
			                                          1st          2nd       3rd
Last verse no bass

| /  slide up
| \  slide down
| h  hammer-on
| p  pull-off
| ~  vibrato
| +  harmonic
| x  Mute note
===============================================================================
Suggest correction
comments
print report bad tab
guest
You may want to rate the tab now too:
select rating
Please do not post tabs as comments. Select "correction" instead!