Oops, an error
Loading. Please wait.

Grapevine Fires Tab

version 1
version 1

Whole song

Interactive

28,568 views 12 this week
2 commentsread comments
1 2 3 4 5
excellent!
x 5
add to favorites
launch autoscroll
font size
0
reset
how to read this tab
guitar tuner
Autoscroll
slow
fast
+/-
esc
set tempo
stop
Help us to improve Ultimate-Guitar.com Take our survey!
×
Author
Difficulty
Capo
intermediate
3rd fret
Title: Grapevine Fires
Artist: Death Cab for Cutie
Album: Narrow Stairs

I don't have the chords or anything here, but this is the stuff that Ben plays at 
points in the song. (You can find the chords in other tabs)


Capo 3


Chorus 1 (0:39)
E--------------------------------------------------------|
B--------------------------------------------------------|
G-5--------------4------7------5--------------4----------|
D----7---5----------5------5------7---5----------5~~~~---|
A------------7----------------------------7--------------|
E--------------------------------------------------------|

E-------------------------------------------------------|
B-------------------------------------------------------|
G-5--------------4------7------5--------------4~~~~~----|
D----7---5----------5------5------7---5-----------------|
A------------7----------------------------7-------------|
E-------------------------------------------------------|

Verse 2 (1:25)
E------------------------------|
B------------------------------|
G-5--------------4------7------|    x2
D----7---5----------5------5---|
A------------7-----------------|
E------------------------------|

E-----------------------------------------------------------------|
B-----------------------------------------------------------------|
G-----------7------4-----------------------7------4---------------|
D-(7)-7--5------5------5--4---------7---5------5------5------5----|
A---------------------------5~~~~------------------------7--------|
E-----------------------------------------------------------------|


E----------------------------------------------------------------|
B----------------------------------------------------------------|
G-----------7------4-----------------------7------4~~~~~~--------|
D----7--5------5------5--4---------7---5-------5-----------------|
A---------------------------5~~~~--------------------------------|
E----------------------------------------------------------------|

Outro (2:43)
E----------------------------------------------------|
B----------------------3-------3-5--1-0-1-0-3-0-3-0--|
G-2-0-2-0-5-0-5-0----0-------0-----------------------|
D------------------5-----0-4-------------------------|
A----------------------------------------------------|
E----------------------------------------------------|

E-----------------------------------------------------|
B----0-3-5-0------------------------------3-------3-5-|
G------------0---0---2-0-2-0-5-0-5-0----0-------0-----|
D-5------------2----------------------5-----0-4-------|
A-----------------------------------------------------|
E-----------------------------------------------------|

E----------------------------------|
B-1-0-1-0-3-0-3-0-8-0-8-0-8-0-8-0--|
G----------------------------------|    x2
D----------------------------------|
A----------------------------------|
E----------------------------------|
Suggest correction
comments
print report bad tab
2 comments total.
0 reply
UnsignedRecords 767 wrote on December 3 2008, 07:30 pm

this is pretty much spot on. good job!

0 reply
dylanbob 31 wrote on March 15 2009, 03:40 pm

Yeah its real noice.

guest
You may want to rate the tab now too:
select rating
Wanna post a correction for this tab? Suggest correction