Oops, an error
Loading. Please wait.

I Was A Kaleidoscope Tab

version 1
version 1

Acoustic

Whole song

12,513 views 3 this week
1 commentread comment
1 2 3 4 5
x 6
add to favorites
launch autoscroll
font size
0
reset
how to read this tab
guitar tuner
Autoscroll
slow
fast
+/-
esc
set tempo
stop
Help us to improve Ultimate-Guitar.com Take our survey!
×
Author
------------------------------------------------------------------------------
              I WAS A KALEIDOSCOPE (Acoustic) – Death Cab for Cutie
------------------------------------------------------------------------------

Acoustic version of song on YouTube (www.youtube.com/watch?v=_K0R8UN2SjQ)
Tabbed by: Pat Malavi
Email: pat.malavi@gmail.com

Tuning: Standard
Watch video referenced above for strumming rhythm

Verse 1:

e|---------------------------------------------------------------------------|
B|---------------------------------------------------------------------------|
G|----------------7--7--x--6--6--x--------------------7--7--x--6--7--6--6--x-|
D|-7—-x--7--7--x--7--7--x--7--7--x--6--6--x--7--7--x--7--7--x--7--7--7--7--x-|
A|-7--x--7--7--x--5--5--x--5--5--x--7--7--x--7--7--x--5--5--x--5--5--5--5--x-|
E|-5--x--5--5--x--------------------0--0--x--0--0--x-------------------------|

       I put on my overcoat and walked into winter, my teeth chattered rhythms

e|---------------------------------------------------------------------------|
B|---------------------------------------------------------------------------|
G|----------------7--7--x--6--6--x----------------------------7--7--x--6--6--|
D|-7—-x--7--7--x--7--7--x--7--7--x--6--6--x--7--7--x----------7--7--x--7--7--|
A|-7--x--7--7--x--5--5--x--5--5--x--7--7--x--7--7--x----------5--5--x--5--5--|
E|-5--x--5--5--x--------------------0--0--x--0--0--x-------------------------|

 And they were grouped in 2s or 3s, like a morse code message was sent from me

e|---------------------------------------------------------------------------|
B|---------------------------------------------------------------------------|
G|-------------------7--7--x--6--6--x--------------------7--7--x--6--7--6--6-|
D|-7--7—-x--7--7--x--7--7--x--7--7--x--6--6--x--7--7--x--7--7--x--7--7--7--7-|
A|-7--7--x--7--7--x--5--5--x--5--5--x--7--7--x--7--7--x--5--5--x--5--5--5--5-|
E|-5--5--x--5--5--x--------------------0--0--x--0--0--x----------------------|

   to me and cars on slippery slopes were stuck, people pushing through 
   their mittens as I was beginning

e|---------------------------------------------------------------------------|
B|---------------------------------------------------------------------------|
G|-------------------7--7--x--6--6--x----------------------------------------|
D|-7--7—-x--7--7--x--7--7--x--7--7--x------------------6--6--x--7--7--x------|
A|-7--7--x--7--7--x--5--5--x--5--5--x------------------7--7--x--7--7--x------|
E|-5--5--x--5--5--x------------------------------------0--0--x--0--0--x------|

          to feel it soaking through my shoes, getting colder with every

e|---------------------------------------------------------------------------|
B|---------------------------------------------------------------------------|
G|-6--6--x--6--6--x--6--6--x--6--6--x----------------------------------------|
D|-7--7—-x--7--7--x--7--7--x--7--7--x----------------------------------------|
A|-5--5--x--5--5--x--5--5--x--5--5--x----------------------------------------|
E|---------------------------------------------------------------------------|

   step I took to your apartment

Musical Interlude (play twice):

e|---------------------------------------------------------------------------|
B|---------------------------------------------------------------------------|
G|---------------------------------------------------------------------------|
D|---------------------------------------------------------------------------|
A|-----0-----0-----0-----0-----4-----4-----4-----4---------------------------|
E|--2-----2-----2-----2-----5-----5-----5-----5------------------------------|

    dear.

e|---------------------------------------------------------------------------|
B|---------------------------------------------------------------------------|
G|--------------4---------------6--------6-----------------------------------|
D|-----6-----6-----6-----6---------7--------7-----7--------------------------|
A|--7-----7-----------7------5--------5--------5-----------------------------|
E|---------------------------------------------------------------------------|

Verse 2:

e|---------------------------------------------------------------------------|
B|---------------------------------------------------------------------------|
G|----------------7--7--x--6--6--x--------------------7--7--x--6--7--6--6--x-|
D|-7—-x--7--7--x--7--7--x--7--7--x--6--6--x--7--7--x--7--7--x--7--7--7--7--x-|
A|-7--x--7--7--x--5--5--x--5--5--x--7--7--x--7--7--x--5--5--x--5--5--5--5--x-|
E|-5--x--5--5--x--------------------0--0--x--0--0--x-------------------------|

      And I was a kaleidoscope the snow on my lenses distorting the image

e|---------------------------------------------------------------------------|
B|---------------------------------------------------------------------------|
G|-------------------7--7--x--6--6--x----------------------------------------|
D|-7--7—-x--7--7--x--7--7--x--7--7--x---------6--6--x--7--7--x---------------|
A|-7--7--x--7--7--x--5--5--x--5--5--x---------7--7--x--7--7--x---------------|
E|-5--5--x--5--5--x---------------------------0--0--x--0--0--x---------------|

            of what was only one of you and I didn't know which one

e|---------------------------------------------------------------------------|
B|---------------------------------------------------------------------------|
G|-6--6--x--6--6--x--6--6--x--6--6--x----------------------------------------|
D|-7--7—-x--7--7--x--7--7--x--7--7--x----------------------------------------|
A|-5--5--x--5--5--x--5--5--x--5--5--x----------------------------------------|
E|---------------------------------------------------------------------------|

      to    address  as all   your lips 
        
e|---------------------------------------------------------------------------|
B|---------------------------------------------------------------------------|
G|---------------------------------------------------------------------------|
D|---------------------------------------------------------------------------|
A|-------0-----0-----0-----0-----4-----4-----4-----4-------------------------|
E|-2--------2-----2-----2-----5-----5-----5-----5----------------------------|

   moved and this is when I forget to breathe 

e|---------------------------------------------------------------------------|
B|---------------------------------------------------------------------------|
G|-----------------4---------------------6--------6--------------------------|
D|--------6-----6-----6-----6---------------7--------7-----------------------|
A|-----7-----7-----------7------------5--------5--------5--------------------|
E|---------------------------------------------------------------------------|

   and all the things I scripted they sound unfounded.

e|---------------------------------------------------------------------------|
B|---------------------------------------------------------------------------|
G|---------------------------------------------------------------------------|
D|---------------------------------------------------------------------------|
A|----0-----0-----0-----0-----4-----4-----4-----4----------------------------|
E|-2-----2-----2-----2-----5-----5-----5-----5-------------------------------|

   And it's that look that you're giving me

e|---------------------------------------------------------------------------|
B|---------------------------------------------------------------------------|
G|-----------------4--------------6--------6-----------5--5--5--5--5--x------|
D|--------6-----6-----6-----6--------7--------7--------4--4--4--4--4--x------|
A|-----7-----7-----------7-----5--------5--------5-----5--5--5--5--5--x------|
E|---------------------------------------------------------------------------|

    that tells me exactly what you are thinking,       this ain't working

e|---------------------------------------------------------------------------|
B|---------------------------------------------------------------------------|
G|-------------------7--7--x--6--6--x--------------------7--7--x--6--7--6--x-|
D|-7--7—-x--7--7--x--7--7--x--7--7--x--6--6--x--7--7--x--7--7--x--7--7--7--x-|
A|-7--7--x--7--7--x--5--5--x--5--5--x--7--7--x--7--7--x--5--5--x--5--5--5--x-|
E|-5--5--x--5--5--x--------------------0--0--x--0--0--x----------------------|

   anymore.

e|---------------------------------------------------------------------------|
B|---------------------------------------------------------------------------|
G|-------------------7--7--x--6--6--x--------------------7--7--x--6--7--6--x-|
D|-7--7\-x--7--7--x--7--7--x--7--7--x--6--6--x--7--7--x--7--7--x--7--7--7--x-|
A|-7--7\-x--7--7--x--5--5--x--5--5--x--7--7--x--7--7--x--5--5--x--5--5--5--x-|
E|-5--5\-x--5--5--x--------------------0--0--x--0--0--x----------------------|

Bridge:

e|---------------------------------------------------------------------------|
B|---------------------------------------------------------------------------|
G|--------------4-----4-----6-----6-----4-----4------------------------------|
D|--7-----7------------------------------------------------------------------|
A|-----5-----5-----5-----5-----5-----5-----5-----5---------------------------|
E|---------------------------------------------------------------------------|

       They got their mothers worked into a panic

e|---------------------------------------------------------------------------|
B|--------------0-----0-----2-----2-----0-----0------------------------------|
G|--2-----2------------------------------------------------------------------|
D|---------------------------------------------------------------------------|
A|-----2-----2-----2-----2-----2-----2-----2-----2---------------------------|
E|---------------------------------------------------------------------------|

       sledding down hills into oncoming traffic

e|---------------------------------------------------------------------------|
B|---------------------------------------------------------------------------|
G|--------------4-----4-----6-----6-----4-----4------------------------------|
D|--7-----7------------------------------------------------------------------|
A|-----5-----5-----5-----5-----5-----5-----5-----5---------------------------|
E|---------------------------------------------------------------------------|

    and parents layered clothes until the children couldn't move them

e|---------------------------------------------------------------------------|
B|--------------0-----0-----2-----2-----0-----0------------------------------|
G|--2-----2------------------------------------------------------------------|
D|---------------------------------------------------------------------------|
A|-----2-----2-----2-----2-----2-----2-----2-----2---------------------------|
E|---------------------------------------------------------------------------|

   and left them outside until their noses were blue

e|---------------------------------------------------------------------------|
B|-----------------------6--6--6--6--6---------------------------------------|
G|-----------------------7--7--7--7--7--------------------------------------|
D|-----4--4--4--4--4-----7--7--7--7--7---------------------------------------|
A|-----4--4--4--4--4-----5--5--5--5--5---------------------------------------|
E|-----2--2--2--2--2---------------------------------------------------------|

   and I got             left there

e|---------------------------------------------------------------------------|
B|---------------------------------------------------------------------------|
G|----------------7--7--x--6--6--x--------------------7--7--x--6--7--6--6--x-|
D|-7—-x--7--7--x--7--7--x--7--7--x--6--6--x--7--7--x--7--7--x--7--7--7--7--x-|
A|-7--x--7--7--x--5--5--x--5--5--x--7--7--x--7--7--x--5--5--x--5--5--5--5--x-|
E|-5--x--5--5--x--------------------0--0--x--0--0--x-------------------------|

   too.

Last verse:

e|---------------------------------------------------------------------------|
B|---------------------------------------------------------------------------|
G|----------------7--7--x--6--6--x--------------------7--7--x--6--7--6--6--x-|
D|-7—-x--7--7--x--7--7--x--7--7--x--6--6--x--7--7--x--7--7--x--7--7--7--7--x-|
A|-7--x--7--7--x--5--5--x--5--5--x--7--7--x--7--7--x--5--5--x--5--5--5--5--x-|
E|-5--x--5--5--x--------------------0--0--x--0--0--x-------------------------|

       I put on my overcoat and walked into winter, my teeth chattered rhythms

e|---------------------------------------------------------------------------|
B|---------------------------------------------------------------------------|
G|----------------7--7--x--6--6--x-------------------------------------------|
D|-7—-x--7--7--x--7--7--x--7--7--x--6--6--x--7--7--x-------------------------|
A|-7--x--7--7--x--5--5--x--5--5--x--7--7--x--7--7--x-------------------------|
E|-5--x--5--5--x--------------------0--0--x--0--0--x-------------------------|

 And they were grouped in 2s or 3s, like a morse code message 

e|---------------------------------------------------------------------------|
B|---------------------------------------------------------------------------|
G|-6--6--6--6--6--6--6--6--6--6--6--6--6--6--6--6\---------------------------|
D|-7--7—-7--7--7--7--7--7--7--7--7--7--7--7--7--7\---------------------------|
A|-5--5--5--5--5--5--5--5--5--5--5--5--5--5--5--5\---------------------------|
E|---------------------------------------------------------------------------|

   was sent from me to me.

Suggest correction
comments
print report bad tab
1 comment total.
0 reply
hendrixfreak93 831 Nov 17, 2008 04:14 PM

Dude, fantastic tab! Perfect!
Thanks a ton for this.
:]

guest
You may want to rate the tab now too:
select rating
Wanna post a correction for this tab? Suggest correction