Oops, an error
Loading. Please wait.

I Will Follow You Into The Dark Tab

version 3
186,456 views 60 this week
28 commentsread comments
1 2 3 4 5
excellent!
x 48
add to favorites
launch autoscroll
font size
0
reset
how to read this tab
guitar tuner
Tab Pro tools
  • play this tab
  • loop segment
  • change instrument
  • show fretboard
  • metronome
×
Best way to learn
"I Will Follow You Into The Dark"
Autoscroll
slow
fast
+/-
esc
set tempo
stop
Contributor
Difficulty
Capo
intermediate
5th fret
----------------------------------------------------------------------------
                        I Will Follow You Into the Dark
----------------------------------------------------------------------------
Artist: Death Cab For Cutie

Most of this tab is off the youtube video "How to Play I will Follow You Into the Dark"
mikesmai (Props to him) I mostly just organized it and added a few things. I use my
and my first two fingers to play this and the xxx's are a quick scrape down with your 
and middle finger nails. If you need any more help definitly check out mikesmai's video. Enjoy!

Capo 5th
e||----------------|----------------|----------------|----------------|
B||----x-1-----x-1-|----x-1-----x-1-|----x-1-----x---|----x-1-----x-1-|
G||----x-----2-x---|----x-----0-x---|----x-----2-x---|----x-------x---|
D||----x-------x---|----x-------x---|----x-------x---|--2-x-----0-x---|
A||0-------0-------|3-------3-------|----------------|3-------2-------|
E||----------------|----------------|1-------1-------|----------------|

e||----------------|----------------|----------------|----------------|
B||----x-1-----x-1-|----x-1-----x-1-|----x-3-----x-1-|----x-3-----x-1-|
G||----x-----2-x---|----x-----0-x---|----x-----0-x---|----x-----0-x---|
D||----x-------x---|----x-------x---|----x-------x---|----x-------x---|
A||0-------0-------|3-------3-------|----------------|----------------|
E||----------------|----------------|3-------3-------|3-------3-------|

e||----------------|----------------|----------------|----------------|
B||----x-1-----x-1-|----x-1-----x-1-|----x-0-----x-0-|----x-1-----x-1-|
G||----x-----2-x---|----x-----0-x---|----x-----1-x---|----x-------x---|
D||----x-------x---|----x-------x---|----x-------x---|--2-x-------x---|
A||0-------0-------|3-------3-------|----------------|0---------2-----|
E||----------------|----------------|0-------0-------|--------3-------|

e||----------------|----------------|----------------|----------------|
B||----x-1-----x-1-|1---x-1-----x-1-|----x-1-----x-1-|----x-1-----x-1-|
G||----x-----2-x---|1---x-----1-x---|----x-----0-x---|----x-----0-x---|
D||----x-------x---|3---x-------x---|----x-------x---|----x-------x---|
A||----------------|3---------------|3---------------|3---------------|
E||1-------1-------|1-------1-------|--------3-------|--------3-------|


  1. Love of mine...
  2. No blinding light...
e||----------------|----------------|----------------|----------------|
B||----x-1-----x-1-|----x-1-----x-1-|----x-1-----x-1-|----x-1-----x-1-|
G||----x-----0-x---|----x-----0-x---|----x-----2-x---|----x-----2-x---|
D||----x-------x---|----x-------x---|----x-------x---|----x-------x---|
A||3---------------|3---------------|0---------------|0---------------|
E||--------3-------|--------3-------|--------0-------|--------0-------|
                                                                         2x
e||----------------|----------------|----------------|----------------|
B||----x-1-----x-1-|----x-1-----x-1-|----x-1-----x-1-|----x-3-----x-3-|
G||----x-----2-x---|----x-----2-x---|----x-----0-x---|----x-----0-x---|
D||----x-------x---|----x-------x---|----x-------x---|----x-------x---|
A||--------3-------|--------3-------|3-------3-------|----------------|
E||1---------------|1---------------|----------------|3-------3-------|


   If heaven and hell decide...
e||----------------|----------------|----------------|----------------|
B||----x-1-----x-1-|----x-1-----x-1-|----x-1-----x---|----x-1-----x-1-|
G||----x-----2-x---|----x-----0-x---|----x-----2-x---|----x-------x---|
D||----x-------x---|----x-------x---|----x-------x---|--2-x-----0-x---|
A||0-------0-------|3-------3-------|----------------|3-------2-------|
E||----------------|----------------|1-------1-------|----------------|

e||----------------|----------------|----------------|----------------|
B||----x-1-----x-1-|----x-1-----x-1-|----x-3-----x-1-|----x-3-----x-1-|
G||----x-----2-x---|----x-----0-x---|----x-----0-x---|----x-----0-x---|
D||----x-------x---|----x-------x---|----x-------x---|----x-------x---|
A||0-------0-------|3-------3-------|----------------|----------------|
E||----------------|----------------|3-------3-------|3-------3-------|

   If there's no one beside you...
e||----------------|----------------|----------------|----------------|
B||----x-1-----x-1-|----x-1-----x-1-|----x-0-----x-0-|----x-1-----x-1-|
G||----x-----2-x---|----x-----0-x---|----x-----1-x---|----x-------x---|
D||----x-------x---|----x-------x---|----x-------x---|--2-x-------x---|
A||0-------0-------|3-------3-------|----------------|0---------2-----|
E||----------------|----------------|0-------0-------|--------3-------|

e||----------------|----------------|----------------|----------------|
B||----x-1-----x-1-|1---x-1-----x-1-|----x-1-----x-1-|----x-1-----x-1-|
G||----x-----2-x---|1---x-----1-x---|----x-----0-x---|----x-----0-x---|
D||----x-------x---|3---x-------x---|----x-------x---|----x-------x---|
A||----------------|3---------------|3---------------|3---------------|
E||1-------1-------|1-------1-------|--------3-------|--------3-------|


  1. In Catholic school...
  2. And I held my tongue...
e||----------------|----------------|----------------|----------------|
B||----x-1-----x-1-|----x-1-----x-1-|----x-1-----x-1-|----x-1-----x-1-|
G||----x-----0-x---|----x-----0-x---|----x-----2-x---|----x-----2-x---|
D||----x-------x---|----x-------x---|----x-------x---|----x-------x---|
A||3---------------|3---------------|0---------------|0---------------|
E||--------3-------|--------3-------|--------0-------|--------0-------|
                                                                         2x
e||----------------|----------------|----------------|----------------|
B||----x-1-----x-1-|----x-1-----x-1-|----x-1-----x-1-|----x-3-----x-3-|
G||----x-----2-x---|----x-----2-x---|----x-----0-x---|----x-----0-x---|
D||----x-------x---|----x-------x---|----x-------x---|----x-------x---|
A||--------3-------|--------3-------|3-------3-------|----------------|
E||1---------------|1---------------|----------------|3-------3-------|


   If heaven and hell decide...
e||----------------|----------------|----------------|----------------|
B||----x-1-----x-1-|----x-1-----x-1-|----x-1-----x---|----x-1-----x-1-|
G||----x-----2-x---|----x-----0-x---|----x-----2-x---|----x-------x---|
D||----x-------x---|----x-------x---|----x-------x---|--2-x-----0-x---|
A||0-------0-------|3-------3-------|----------------|3-------2-------|
E||----------------|----------------|1-------1-------|----------------|

e||----------------|----------------|----------------|----------------|
B||----x-1-----x-1-|----x-1-----x-1-|----x-3-----x-1-|----x-3-----x-1-|
G||----x-----2-x---|----x-----0-x---|----x-----0-x---|----x-----0-x---|
D||----x-------x---|----x-------x---|----x-------x---|----x-------x---|
A||0-------0-------|3-------3-------|----------------|----------------|
E||----------------|----------------|3-------3-------|3-------3-------|

   If there's no one beside you...
e||----------------|----------------|----------------|----------------|
B||----x-1-----x-1-|----x-1-----x-1-|----x-0-----x-0-|----x-1-----x-1-|
G||----x-----2-x---|----x-----0-x---|----x-----1-x---|----x-------x---|
D||----x-------x---|----x-------x---|----x-------x---|--2-x-------x---|
A||0-------0-------|3-------3-------|----------------|0---------2-----|
E||----------------|----------------|0-------0-------|--------3-------|

e||----------------|----------------|----------------|----------------|
B||----x-1-----x-1-|1---x-1-----x-1-|----x-1-----x-1-|----x-1-----x-1-|
G||----x-----2-x---|1---x-----1-x---|----x-----0-x---|----x-----0-x---|
D||----x-------x---|3---x-------x---|----x-------x---|----x-------x---|
A||----------------|3---------------|3---------------|3---------------|
E||1-------1-------|1-------1-------|--------3-------|--------3-------|


  1. You and me, have seen...
  2. Are all worn down...
e||----------------|----------------|----------------|----------------|
B||----x-1-----x-1-|----x-1-----x-1-|----x-1-----x-1-|----x-1-----x-1-|
G||----x-----0-x---|----x-----0-x---|----x-----2-x---|----x-----2-x---|
D||----x-------x---|----x-------x---|----x-------x---|----x-------x---|
A||3---------------|3---------------|0---------------|0---------------|
E||--------3-------|--------3-------|--------0-------|--------0-------|
                                                                         2x
e||----------------|----------------|----------------|----------------|
B||----x-1-----x-1-|----x-1-----x-1-|----x-1-----x-1-|----x-3-----x-3-|
G||----x-----2-x---|----x-----2-x---|----x-----0-x---|----x-----0-x---|
D||----x-------x---|----x-------x---|----x-------x---|----x-------x---|
A||--------3-------|--------3-------|3-------3-------|----------------|
E||1---------------|1---------------|----------------|3-------3-------|


   In the blackest of rooms
e||----------------|----------------|----------------|----------------|
B||----x-1-----x-1-|----x-1-----x-1-|----x-1-----x-1-|----x-3-----x-3-|
G||----x-----1-x---|----x-----1-x---|----x-----1-x---|----x-----1-x---|
D||----x-------x---|----x-------x---|----x-------x---|----x-------x---|
A||--------3-------|--------3-------|--------3-------|--------3-------|
E||1---------------|1---------------|1---------------|1---------------|


   If heaven and hell decide...
e||----------------|----------------|----------------|----------------|
B||----x-1-----x-1-|----x-1-----x-1-|----x-1-----x---|----x-1-----x-1-|
G||----x-----2-x---|----x-----0-x---|----x-----2-x---|----x-------x---|
D||----x-------x---|----x-------x---|----x-------x---|--2-x-----0-x---|
A||0-------0-------|3-------3-------|----------------|3-------2-------|
E||----------------|----------------|1-------1-------|----------------|

e||----------------|----------------|----------------|----------------|
B||----x-1-----x-1-|----x-1-----x-1-|----x-3-----x-1-|----x-3-----x-1-|
G||----x-----2-x---|----x-----0-x---|----x-----0-x---|----x-----0-x---|
D||----x-------x---|----x-------x---|----x-------x---|----x-------x---|
A||0-------0-------|3-------3-------|----------------|----------------|
E||----------------|----------------|3-------3-------|3-------3-------|

   If there's no one beside you...
e||----------------|----------------|----------------|----------------|
B||----x-1-----x-1-|----x-1-----x-1-|----x-0-----x-0-|----x-1-----x-1-|
G||----x-----2-x---|----x-----0-x---|----x-----1-x---|----x-------x---|
D||----x-------x---|----x-------x---|----x-------x---|--2-x-------x---|
A||0-------0-------|3-------3-------|----------------|0---------2-----|
E||----------------|----------------|0-------0-------|--------3-------|

e||----------------|----------------|----------------|----------------|
B||----x-1-----x-1-|1---x-1-----x-1-|----x-1-----x-1-|----x-1-----x-1-|
G||----x-----2-x---|1---x-----1-x---|----x-----0-x---|----x-----0-x---|
D||----x-------x---|3---x-------x---|----x-------x---|----x-------x---|
A||----------------|3---------------|3---------------|3---------------|
E||1-------1-------|1-------1-------|--------3-------|--------3-------|

  Then I will follow you into the dark
e||----------------|
B||-1---1---1------|
G||-2---1---0------|
D||-3---3---2------|
A||-3---3---3------|
E||-1---1----------|
                                 END

Great song for when you have a broken e string.
Chords
e||------------------------|
B||-1--1--0--1--1--1--3--1-|
G||-2--0--1--2--1--0--0--0-|
D||-2--2--2--3--3--0--0--2-|
A||-0--3--2--3--3--2--2--3-|
E||-0--0--0--1--1--0--3--3-|
comments
print report bad tab
28 comments total. Showing first comments.
0 reply
TheTabPirate wrote on September 19 2007, 10:11 am

Sorry I don't know why but it cut of some words in my intro.
youtube video By mikesmai
I use my thumb and my first two fingers to play this
scrape down with your index and middle finger nails

0 reply
shelly_belly wrote on October 16 2007, 02:55 am

fuc.kkkk
i love you, love this tab
only good tab with lyrics and labelled parts
five from me
x

0 reply
papercut665 wrote on October 21 2007, 04:24 pm

best tab ever. only thing to make it better woulda been all the lyrics :D but i think ill live

I want to post or [tab]
guest
You may want to rate the tab now too:
select rating
Please do not post tabs as comments. Select "correction" instead!