Oops, an error
Loading. Please wait.

I Will Possess Your Heart Bass Tab

version 3
version 3

Whole song

85,747 views 135 this week
7 commentsread comments
1 2 3 4 5
excellent!
x 28
add to favorites
launch autoscroll
font size
0
reset
guitar tuner
Tab Pro tools
  • play this tab
  • loop segment
  • change instrument
  • show fretboard
  • metronome
Autoscroll
slow
fast
+/-
esc
set tempo
stop
Contributor
Difficulty
Death Cab For Cutie 
I Will Possess Your Heart
EADG

Main Riff: The slide on the 7 is light and short
|-----------|---------|-----------|-----------|
|-----------|---------|-3p0-0-0-3-|-0-3-5-/7\-|
|-3h5-5-5-3-|-3-5-5-3-|-----------|-----------|
|-----------|---------|-----------|-----------|
  1 & 2 3 4   1 2 3 4   1 & 2 3 4   1 2 3  4

Main Riff Variation:
|-----------|-----------|-------------|---------------|
|-----------|-----------|-3p0-0-0-0-3-|-0-0-3-5-5-/7\-|
|-3h5-5-5-3-|-3-3-5-5-3-|-------------|---------------|
|-----------|-----------|-------------|---------------|
  1 & 2 3 4   1 & 2 3 4   1 & 2 3 & 4   1 & 2 3 &  4

Bridge: Not exactly sure on this but it sounds good 
|---------|---------|---------|-----------------|
|-7-7-7-7-|-5-5-5-5-|-7-7-7-7-|-7-7-7-7-7-7-7-7-|
|---------|---------|---------|-----------------|
|---------|---------|---------|-----------------|
  1 2 3 4   1 2 3 4   1 2 3 4   1 & 2 & 3 & 4 &

|---------|---------|---------|-----------------|-----------------|
|-7-7-7-7-|-5-5-5-5-|-7-7-7-7-|-7-7-7-7-7-7-7-7-|-7-7-7-7-7-7-7-7-|
|---------|---------|---------|-----------------|-----------------|
|---------|---------|---------|-----------------|-----------------|
  1 2 3 4   1 2 3 4   1 2 3 4   1 & 2 & 3 & 4 &   1 & 2 & 3 & 4 &


End on
|----------|
|----------|
|-3h5~~~~~~|
|----------|
  1 & 2 3 4
comments
print report bad tab
7 comments total. Showing first comments.
+10 reply
LaurentMontreal wrote on May 23 2008, 07:36 pm

Not bad, but for the bridge, you should try this;
D|-33333333-222222222-33333333-55555555

But thanks for the tab.

+1 reply
Kingpin2521 wrote on July 16 2008, 10:35 pm

hey thanks for posting this tab helped me learn it in a few minutes

+1 reply
giffordbassist0 wrote on July 31 2008, 06:01 pm

good tab =D

I want to post or [tab]
guest
You may want to rate the tab now too:
select rating
Please do not post tabs as comments. Select "correction" instead!