Oops, an error
Loading. Please wait.

Lack Of Color Tab

version 2
version 2

Whole song

Interactive

313,916 views 141 this week
30 commentsread comments
1 2 3 4 5
x 149
add to favorites
launch autoscroll
font size
0
reset
how to read this tab
guitar tuner
Autoscroll
slow
fast
+/-
esc
set tempo
stop
Author
Tuning
D# G# C# F# A# D#
This is 100% correct!


Tuned down 1/2 step


[Intro/Verse:]

eb|-------------------------------| 
Bb|-------------------------------| 
Gb|-------------------------------|
Db|-------------------------------|
Ab|-11-11-11-11-11-11-11/7-7------| 
Eb|0--0--0--0--0--0--0----0-0-----|  

eb|--------------------------------|   
Bb|--------------------------------|
Gb|--------------------------------|   
Db|--------------------------------|
Ab|--7/11-11-11-11-11-11/9-9-------|  
Eb|-0-0--0--0--0--0--0----0-0------|   
                            
eb|--------------------------------------------|
Bb|--------------------------------------------|
Gb|-----9-9-9-9-9-9-----------------9-9--------|
Db|-------------------9-9--7-7-7-7-------9-----|
Ab|--------------------------------------------|
Eb|----9-9-9-9-9-9---9-9----9-9-9----9--9------|


And when I see you
I really see you upside down
But my brain knows better
It picks you up and turns you around
Turns you around
Turns you around

If you feel discouraged
And there's a lack of color here
Please don't worry lover
It's really bursting at the seams
From absorbing everything
The spectrum's A to Z

Ohhh's

This is fact not fiction
For the first time in years
And all the girls in every girlie magazine
Can't make me feel any less alone
I'm reaching for the phone 

Strumming:

eb|-----------------------------|
Bb|--0-0--0-0--0--0---0-0--0-0--|
Gb|--8-8--8-8--9--9---8-8--6-6--|
Db|--9-9--9-9--11-11--9-9--7-7--|
Ab|--9-9--9-9--11-11--9-9--7-7--|
Eb|--7-7--8-8--9--9---7-7--5-5--|



To call at 7:03
And on your machine I slur a plea
For you to come home


Bb|-0-0--0-0----|
Gb|-8-8--8-8----|
Db|-9-9--9-9----|
Ab|-9-9--9-9----|
Eb|-7-7--8-8----|


But I know it's to late


eb|-------------|
Bb|-0------0----|
Gb|-9---8--6----|
Db|-11--6--7----|
Ab|-11--7--7----|
Eb|-9------5----|


And I should have given you a reason to stay
Given you a reason to stay

[Outro] (2x)

eb|-------------------------------| 
Bb|-------------------------------| 
Gb|-------------------------------|
Db|-------------------------------|
Ab|-11-11-11-11-11-11-11/7-7------| 
Eb|0--0--0--0--0--0--0----0-0-----|  


eb|--------------------------------|   
Bb|--------------------------------|
Gb|--------------------------------|   
Db|--------------------------------|
Ab|--7/11-11-11-11-11-11/9-9-------|  
Eb|-0-0--0--0--0--0--0----0-0------|   

                            
eb|--------------------------------------------|
Bb|--------------------------------------------|
Gb|-----9-9-9-9-9-9-----------------9-9--------|
Db|-------------------9-9--7-7-7-7-------9-----|
Ab|--------------------------------------------|
Eb|----9-9-9-9-9-9---9-9----9-9-9----9--9------|

Last time end on:

eb|-------|
Bb|-------|
Gb|-------|
Db|-------|
Ab|----11-|
Eb|---0---|

This is fact not fiction
For the first time in years...



************************************

| b  Bend
| /  Slide up

************************************
Suggest correction
comments
print report bad tab
30 comments total. Showing first comments.
0 reply
Mert 71 Nov 24, 2005 08:14 AM

tis good
peace...

0 reply
becks_23 194 Dec 23, 2005 01:56 AM

fantastic

+4 reply
petsounds 16 Jan 12, 2006 10:51 AM

great tab
you can finger pick easier by playing it this way

eb|-------------------------------|
Bb|-------------------------------|
Gb|-------------------------------|
Db|--6--6--6--6--6--6-/-2--2--2---|
Ab|-------------------------------|
Eb|0--0--0--0--0--0--0----0-0-----|

guest
You may want to rate the tab now too:
select rating
Wanna post a correction for this tab? Suggest correction