Oops, an error
Loading. Please wait.

Lack Of Color Tab

version 4
version 4

Interactive

8,963 views 3 this week
no commentswrite comment
1 2 3 4 5
please rate
add to favorites
launch autoscroll
font size
0
reset
how to read this tab
guitar tuner
Autoscroll
slow
fast
+/-
esc
set tempo
stop
Help us to improve Ultimate-Guitar.com Take our survey!
×
Author
Difficulty
novice
This is my first tab.
*Notes played on this string are OPTIONAL

Best played with NYLON strings.

Timing: 4/4 (In 4)
|.| = Repeat
[x] = Rest


e|----------------------------------------------------------------------------|
B|----------------------------------------------------4-4---4-4---4-4---------|
G|----0-0---0-0---0-0---------o-o---o-o---o-o---------------------------3-3---|
D|----------------------1-1---------------------3-3---------------------------|
A|----------------------------------------------------------------------------|
Eb*--0-----0-----0----0------0-----0-----0-----0----0-----0-----0-----0-----0-|


e|-------------------------| |
B|--------------4-4--------| |
G|--1-1---1-1---------3-3--| |  x8
D|-------------------------| |
A|-------------------------| |
Eb*-----0-----0-----0-----0| |

I do NOT know what order these chords go in.

B|---3---|
G|---3---|
D|---3---|
A|---1---|
Eb*------|


e|-------|
B|---3---|
G|---2---|                  Rhythm: 1 2 [3] e & a [4] e & a  |.|
D|---3---|
A|---1---|
Eb*------|


e|-------|
B|---4---|
G|---5---|
D|---5---|
A|---3---|
Eb*------|


e|----------------------------------------------------------------------------|
B|----------------------------------------------------4-4---4-4---4-4---------|
G|----0-0---0-0---0-0---------o-o---o-o---o-o---------------------------3-3---|
D|----------------------1-1---------------------3-3---------------------------|
A|----------------------------------------------------------------------------|
Eb*--0-----0-----0----0------0-----0-----0-----0----0-----0-----0-----0-----0-|

                        1st               2nd
e|--------------|  [e|-------------| ]  [e|------------------------| ]
B|--------------|  |B|-4-4---------| |  |B|-4-4----------------|---|
G|--1-1---1-1---|  |G|-------3-3---|.|  |G|-------3-3--0(hold)-|---|
D|--------------|  |D|-------------|.|  |D|--------------------|---|
A|--------------|  |A|-------------| |  |A|--------------------|---|
Eb*-----0-----0-|  [Eb*-----0-----0| ]  [Eb*-----0-----0-----------| ]
Suggest correction
What's this?
You can suggest a correction to this tab. Community and Mods will review your correction and vote to approve or reject it.
comments
We did not receive enough feedback on this tab! Please rate:
print report bad tab
1 2 3 4 5
guest
You may want to rate the tab now too:
select rating
Please do not post tabs as comments. Select "correction" instead!