Oops, an error
Loading. Please wait.

Lightness Bass Tab

2,040 views 1 this week
no commentswrite comment
1 2 3 4 5
x 3
add to favorites
launch autoscroll
font size
0
reset
guitar tuner
Autoscroll
slow
fast
+/-
esc
set tempo
stop
Help us to improve Ultimate-Guitar.com Take our survey!
×
Author
Difficulty
novice
Band: Death Cab For Cutie
Song: Lightness
Album: Transatlanticism
Tabbed by: choke383
Normal Tuning: GDAE


G|------------------------------|
D|------------------------------|
A|------------------------------|
E|1~-------3~-------5~------0x--|x3

G|----------------|
D|----------------|
A|----------------|
E|0~---1~---x-----|x2


0:52
G|------------------------------|
D|------------------------------|
A|------------------------------|
E|1~-------3~-------5~------0x--|x3

G|----------------|
D|----------------|
A|----------------|
E|0~---1~---x-----|x2

G|------------------------|
D|------------------------|
A|------------------------|
E|0~---1~---3~---5~-------|


1:51
G|------------------------------|
D|------------------------------|
A|------------------------------|
E|1~-------3~-------5~------0x--|x3

G|----------------|
D|----------------|
A|----------------|
E|0~---1~---x-----|x2

G|------------------------|
D|------------------------|
A|------------------------|
E|0~---1~---3~---5~-------|

G|------------------|
D|------------------|
A|------------------|
E|1~---------3~-----|


2:43
G|------------------------------|
D|------------------------------|
A|------------------------------|
E|1~-------3~-------5~------0x--|x3

G|----------------------------|
D|----------------------------|
A|----------------------------|
E|1~-------3~-------5~--------|


Any comments, questions or jokes send to style444@hotmail.com
Suggest correction
Give kudos to tab author, rate the tab!
1 2 3 4 5
comments
print report bad tab
guest
You may want to rate the tab now too:
select rating
Wanna post a correction for this tab? Suggest correction