Oops, an error
Loading. Please wait.

Line Of Best Fit Tab

5,076 views 6 this week
2 commentsread comments
1 2 3 4 5
x 11
add to favorites
launch autoscroll
font size
0
reset
how to read this tab
guitar tuner
Autoscroll
slow
fast
+/-
esc
set tempo
stop
Help us to improve Ultimate-Guitar.com Take our survey!
×
Author
Line Of Best Fit
Death Cab For Cutie
Something About Airplanes

Drop D
* - Harmonic
/ - Slide

Slow Tempo

Intro/Verse
e------------------------------------------|
B------------------------------------------|
G------0-----0-----0-----0-----0-----0-----|
D----4-----4-----4-----4-----4-----4-------|
A--------------------------2-----0---------|
D--0-----0-----5-----5---------------------|

These things take my time and energies
Don't stand too close without apologies
Cutthroat, candid glimpses and
Wind me up, I'm ready

Chorus
(Strumming not shown)
e------------------------------------------------------|
B------------------------------------------------------|
G------------------------------------------------------|
D--0-0-0-0-0-0-0-0-0-0-0-0-0-0-0-0-0-0-0-0-0-0-0-0-----|
A--5-5-5-9-9-9-7-7-7-5-5-5-4-4-4-5-5-5-7-7-7-4-4-4-----|
D--5-5-5-5-5-5-5-5-5-5-5-5-4-4-4-4-4-4-4-4-4-4-4-4-----|

Can't escape this line of best fit
Can't escape this line of best fit

Verse
e------------------------------------------|
B------------------------------------------|
G------0-----0-----0-----0-----0-----0-----|
D----4-----4-----4-----4-----4-----4-------|
A--------------------------2-----0---------|
D--0-----0-----5-----5---------------------|

These things take my time and energies
Don't stand too close without apologies
I remember being inside something more than you

Chorus
*Strumming not shown
e------------------------------------------------------|
B------------------------------------------------------|
G------------------------------------------------------|
D--0-0-0-0-0-0-0-0-0-0-0-0-0-0-0-0-0-0-0-0-0-0-0-0-----|
A--5-5-5-9-9-9-7-7-7-5-5-5-4-4-4-5-5-5-7-7-7-4-4-4-----|
D--5-5-5-5-5-5-5-5-5-5-5-5-4-4-4-4-4-4-4-4-4-4-4-4-----|

Can't escape this line of best fit
Can't escape this line of best fit
Can't escape this line of best fit
Can't escape this line of best fit

Outro
(Strumming not shown)
e---------------------------------------------------*7-------|
B------------------------------------------------------------|
G--/11-11-11-9-9-9-7-7-7-6-6-6------0-----0-----0-----*7-----|Repeat a bunch 
D---0--0--0--0-0-0-0-0-0-0-0-0----4-----4-----4--------------|of times
A--/9--9--9--7-7-7-5-5-5-4-4-4-------------------------------|
D---0--0--0--0-0-0-0-0-0-0-0-0--5-----5-----5-----5----------|

e------------------------------------------|
B------------------------------------------|
G------0-----0-----0-----0-----0-----0-----|
D----4-----4-----4-----4-----4-----4-------|
A--------------------------2-----0---------|
D--0-----0-----5-----5---------------------|

I remember being inside something more than you

-Enjoaih
Suggest correction
comments
print report bad tab
2 comments total.
0 reply
GuilleDCFC 31 Jul 31, 2008 07:14 PM

Dude ! Thanks for uploading this, great tab dude, good work :) !

0 reply
sciguy84 10 Sep 06, 2008 07:09 AM

fkin great tab and its not even rated!!! well done my friend

guest
You may want to rate the tab now too:
select rating
Wanna post a correction for this tab? Suggest correction