Oops, an error
Loading. Please wait.

Little Bribes Tab

3,051 views 1 this week
3 commentsread comments
1 2 3 4 5
accurate
x 4
add to favorites
launch autoscroll
font size
0
reset
how to read this tab
guitar tuner
Tab Pro tools
  • play this tab
  • loop segment
  • change instrument
  • show fretboard
  • metronome
×
Best way to learn
"Little Bribes"
Autoscroll
slow
fast
+/-
esc
set tempo
stop
Contributor
-------------------------------------------------------------------------------
                             Little Bribes - Death Cab For Cutie
-------------------------------------------------------------------------------
Tabbed by: Jeff Milnazik
Email: jeffmilnazik@yahoo.com

Tuning: EADGBe

This song pretty much follows a blues format.. The main riff is in E and the variation 
A and such.
The strumming isn't very difficult to figure out.
Palm mute the E string on the open notes.
Feel free to email me with any questions.

   (0)Intro:

e|---------------------------------------------------------------------------|
B|---------------------------------------------------------------------------|
G|---------------------------------------------------------------------------|
D|---------------------------------------------------------------------------|
A|---------------------------------------------------------------------------|
E|---12\---0-----------------------------------------------------------------|

   (1)Main Riff:

e|----0--------------0---0----------------0----------------------------------|
B|----0--------------0---0----------------0----------------------------------|
G|----1--------------6---1----------------6----------------------------------|
D|----2---2-2--------7---2-----2-2--------7----------------------------------|
A|----2--------------7---2----------------7----------------------------------|
E|-0--0-0-0-0-0--0---0---0--0-0-0-0-0-0---0----------------------------------|

   (2)Main Riff Variation:

e|--0------------------------------------------------------------------------|
B|--2------------------------------------------------------------------------|
G|--2----9---14--------------------------------------------------------------|
D|--2----7---12--------------------------------------------------------------|
A|--0------------------------------------------------------------------------|
E|---------------------------------------------------------------------------|

   (3)Bridge Part:

e|---0-----------------------------------------------------------------------|
B|---0-----------------------------------------------------------------------|
G|---4----6---4--------------------------------------------------------------|
D|---5----4---2--------------------------------------------------------------|
A|---5-----------------------------------------------------------------------|
E|---0-----------------------------------------------------------------------|

   (4)Interlude:

e|---2----4----2----4--4----2----4----4--4--4--4--2--------------------------|
B|---2----4----2----4--4----2----4----4--4--4--4--2--------------------------|
G|---2----4----2----6--4----2----4----6--4--4--4--2--------------------------|
D|---4----6----4----6--6----4----6----6--6--6--6--4--------------------------|
A|---4----6----4----4--4----4----6----4--4--4--6--4--------------------------|
E|---2----4----2----4--7----2----4----4--7--5--4--2--------------------------|

   (5)Ending:

e|---4--4--4--4--2---------0-------------------------------------------------|
B|---4--4--4--4--2---------0-------------------------------------------------|
G|---6--4--4--4--2---------1-------------------------------------------------|
D|---6--6--6--6--4---------2-------------------------------------------------|
A|---4--4--4--6--4---------2-------------------------------------------------|
E|---4--7--5--4--2---------0-------------------------------------------------|


Full song:
I'm going to use the numbers before each riff to indicate when to play them. Good luck 
have fun!

riff 0 riff 1
1
The Eiffel Tower built to smaller scale, the freshest oxygen I’d ever inhale
2     
                                             1
I tapped a bottle against the safety rail, killing time
1
And you were like a walking compliment
1
Tall in stature and exceptionally read
2
In dummy glasses and a cardigan
1
Oh come on
3                                                                 1
And oh so empty were the faces Of the dealers and the waitresses around
1
You said that all these things you’ve learned to ignore
1
The hidden cameras on the casino floor
2
And what gets paid for behind hotel doors
        1
Oh come on
3                                                      1
Pretend every slot machine is a robot amputee waving hello
3
The people stare into their eyes and they feed them little bribes
              1
And then they go
4
The never ending twilight in a basement where the sun has never spilt
You said you were lonely
And then we kissed like lonely people do
1
You said this city has a beating heart that pushes people down the boulevard
1
And they’re all hoping for a wish fulfilled in a desert for a dollar bill
2
Those foolish dreams you know they plague me still
        1
Oh come on
3
And oh so empty were the faces of the dealers and the waitresses around
1
3
And oh so empty were the faces of the dealers and the waitresses around
5
Empty.

| /  slide up
| \  slide down
| h  hammer-on
| p  pull-off
| ~  vibrato
| +  harmonic
| x  Mute note
===============================================================================
comments
print report bad tab
3 comments total.
0 reply
interrowhimper wrote on September 23 2009, 01:24 pm

Your numbering is a little strange, but I think your tab is right on. Good job.

0 reply
riprandyrhoads wrote on September 26 2009, 03:50 pm

what about the lead guitar?

0 reply
riprandyrhoads wrote on September 26 2009, 03:50 pm

and the lead is guitar, i saw it live.

I want to post or [tab]
guest
You may want to rate the tab now too:
select rating
Please do not post tabs as comments. Select "correction" instead!