Oops, an error
Loading. Please wait.

Little Wanderer tab

version 3
version 3

Whole song

472 views 1 this week
no commentswrite comment
1 2 3 4 5
x 4
add to favorites
×
Save as Personal and add changes to this tab that will be seen only by you. Learn more ›
×
You can save this tab as Personal to edit and correct it or add notes. All changes will be seen only by you. Learn more »
launch autoscroll
font size
0
reset
how to read this tab
guitar tuner
edit
Autoscroll
slow
fast
+/-
esc
set tempo
stop
Author
-------------------------------------------------------------------------------
                             LITTLE WANDERER - Death Cab for Cutie
-------------------------------------------------------------------------------

Tabbed by: Spirit_Desire


Since there are a lot of different tabbed versions of the song up here, I'd like to share my personal point of 
view how I think it's played on the record. I've worked on it for a while, so I'm pretty sure about it.
Feel free to comment or correct, it's my first tab actually.
Enjoy!

Greets, 
Spirit_Desire

++++++++++++++++++++++++++++++++++++++++++++++++++++++++++++++++++++++++++++++++++++++++++++++++++++++++++++++++


***GUITAR 1***


Tuning: Standard (Capo on 2nd fret)



Intro/Main-Riff (I think there's a slight Delay-Effect on it):


e|-----------------|-----------------|-----------------|--------------------|
B|-----------------|-----------------|-----------------|--------------------|
G|-----------------|-----------------|-----------------|--------------------|
D|----0---2-2-2-0--|----4---5-5-5-4--|----0---2-2-2-0--|----4---4-5-5-5-7\--|
A|--2---2----------|--5---5----------|--2---2----------|--5---5-------------|
E|-----------------|-----------------|-----------------|--------------------|


e|-----------------|-----------------|-------------------|--0~--|
B|-----------------|-----------------|-------------------|--0~--|
G|-----------------|-----------------|-------------------|--0~--|
D|----0---2-2-2-0--|----4---5-4-2-0--|----2---2---0---0--|--2~--|
A|--2---2----------|--5---5----------|--0---0---0---0----|--2~--|
E|-----------------|-----------------|-------------------|--0~--|



Verse:


e|-------------------|-------------------|
B|-------------------|-------------------|
G|-------------------|-------------------|
D|------0-----0---0--|------4-----4---4--|    3x
A|--2-2---2-2---2----|--5-5---5-5---5----|
E|-------------------|-------------------|

"You've sent a photo out your window..."


e|-------------------|-------------------|
B|-------------------|-------------------|
G|-------------------|-------------------|
D|------2-----2---2--|------2-----2---2--|    
A|--0-0---0-0---0----|-------------------|
E|-------------------|--0-0---0-0---0----|

"And that I was on your mind ..."


e|-------------------|-------------------|
B|-------------------|-------------------|
G|-------------------|-------------------|
D|------0-----0---0--|------4-----4---4--|    3x
A|--2-2---2-2---2----|--5-5---5-5---5----|
E|-------------------|-------------------|

"But I couldn't make you out ..."


e|-------------------|-------------------|-----------------|-------------------|
B|-------------------|-------------------|-----------------|-------------------|
G|-------------------|-------------------|-----------------|-------------------|
D|------2-----2---2--|------2-----2---2--|------2-----2----|------0-----0---0--|   
A|--0-0---0-0---0----|-------------------|--0-0---0-0---0--|-------------------|
E|-------------------|--0-0---0-0---0----|-----------------|--3-3---3-3---3----|

"As the network overloads ..."



Chorus:


e|-------------------|-------------------|-------------------|-------------------|
B|-------------------|-------------------|-------------------|-------------------|
G|-------------------|-------------------|-------------------|-------------------|
D|------0-----0---0--|------4-----4---4--|------2-----2---2--|------0-----0---0--|
A|--2-2---2-2---2----|--5-5---5-5---5----|--0-0---0-0---0----|--2-2---2-2---2----|
E|-------------------|-------------------|-------------------|-------------------|

e|-------------------|-------------------|-------------------|-------------------|
B|-------------------|-------------------|-------------------|-------------------|
G|-------------------|-------------------|-------------------|-------------------|
D|------0-----0---0--|------4-----4---4--|------2-----2---2--|------0-----0---0--|
A|-------------------|--5-5---5-5---5----|--0-0---0-0---0----|-------------------|
E|--3-3---3-3---3----|-------------------|-------------------|--3-3---3-3---3----|




***Guitar 2***


Tuning: Standard (Capo on 4nd fret)



Verse: 

Chris seems to play around with these chords, especially with accents on the higher strings:


e|--0--|--0--|
B|--1--|--0--|
G|--2--|--0--|
D|--0--|--2--| 3x
A|--0--|--3--|
E|-----|-----|

"But I couldn't make you out ..."


e|--0--|--0--|
B|--3--|--1--|
G|--0--|--0--|
D|--0--|--3--|
A|--2--|--3--|
E|--3--|--1--|

"As the network overloads ..."



1st Chorus:

Same as in the verse, just play along with these chords & their variations in the following order, 
accents on the hight strings:


e|--0--|--------|-----|--------|--0--|--------|--------|--0--|
B|--1--|--1(0)--|--0--|--0(1)--|--1--|--1(0)--|--0(3)--|--1--|
G|--2--|--0-----|--0--|--2-----|--0--|--0-----|--0-----|--0--|
D|--2--|--2(0)--|--0--|--2(0)--|--3--|--2(0)--|--0-----|--3--|
A|--0--|--3-----|--2--|--0-----|-----|--3-----|--2-----|-----|
E|-----|--------|--3--|--------|-----|--------|--3-----|-----|


2nd & 3rd Chorus:

e|--0----|--0----|----------0--------|-------------|----0--|--0----|---------0------|-------------------|
B|--1p0--|--0h1--|------3-------3----|--0h1p0------|----1--|--1p0--|------3----3----|--------1----------|
G|--2----|--0----|----0---0---0---0--|--------2-0--|----0--|--0----|----0---0----0--|------0---0---(0)--|
D|--2p0--|--0h2--|--2----------------|-------------|----3--|--2p0--|--0-------------|----3-------3------| (...)
A|--0----|--3----|-------------------|-------------|----3--|--3----|----------------|--3----------------|
E|-------|-------|-------------------|-------------|-------|-------|----------------|-------------------|


e|--0----|--0----|----------0--------|-------------|----0--|--0----|---------0------|-----------------|
B|--1p0--|--0h1--|------3-------3----|--0h1p0------|----1--|--1p0--|------3----3----|--------1-----1--|
G|--2----|--0----|----0---0---0---0--|--------2-0--|----0--|--0----|----0---0----0--|------0---0------|  
D|--2p0--|--0h2--|--2----------------|-------------|----3--|--2p0--|--0-------------|----3-------3----|   (...)
A|--0----|--3----|-------------------|-------------|----3--|--3----|----------------|--3--------------|
E|-------|-------|-------------------|-------------|-------|-------|----------------|-----------------|



e|----------------|
B|------1------1--|
G|--0-----0-------|
D|----3-----3-----|
A|----------------|
E|----------------|



Bridge (Guitar 1 plays Main-Riff): 


e|-----------------|-----------------|-----------------|-----------------|
B|----5---5---5----|----8---8---8----|----5---5---5----|----3---3---3----|
G|--7---7---7---7--|--9---9---9---9--|--7---7---7---7--|--5---5---5---5--|
D|-----------------|-----------------|-----------------|-----------------|
A|-----------------|-----------------|-----------------|-----------------|
E|-----------------|-----------------|-----------------|-----------------|

e|-----------------|-----------------|-----------------|-----------------|
B|----5---5---5----|----8---8---8----|----3---3---3----|-----------------|
G|--7---7---7---7--|--9---9---9---9--|--5---5---5---5--|----2---2---2----|
D|-----------------|-----------------|-----------------|--5---5---5---5--|
A|-----------------|-----------------|-----------------|-----------------|
E|-----------------|-----------------|-----------------|-----------------|





So that's basically it - there are more overdubs, especially in the 3rd verse, which create a very special 
harmonic atmosphere, but in the end I think it's all just playing around with the chords I wrote down.


************************************

| /   slide up
| \   slide down
| h   hammer-on
| p   pull-off
| ~   vibrato
| +   harmonic

************************************

            
            
Suggest correction
Creating personal tab
Creating personal tab
You can edit any tab online and save it as your Personal.

You can edit, replace or remove any tab part or add personal notes – all changes will be seen only by you.

Personal tabs can be accessed anytime from any device, even offline.
Learn more »
comments
print report bad tab
guest
You may want to rate the tab now too:
select rating
Wanna post a correction for this tab? Suggest correction