Oops, an error
Loading. Please wait.

Long Division Bass Tab

version 1
version 1

Whole song

Interactive

7,241 views 1 this week
no commentswrite comment
1 2 3 4 5
excellent!
x 5
add to favorites
launch autoscroll
font size
0
reset
guitar tuner
Autoscroll
slow
fast
+/-
esc
set tempo
stop
Help us to improve Ultimate-Guitar.com Take our survey!
×
Contributor
Tabbed by Sebastian Rivera (the_inerciatic_process_@hotmail.com)

Intro 

G|-----------------------------------------------------------|
D|------------------------------5-5-5------------------------| (3 times)
A|-----------------------------------------------------------|
E|--3-3-3--3-3-3--3-3-3--3-3-3---------3-3-3--3-3-3--3-3-3---|

G|-----------------------------------------------------------|
D|-----------------------------------------------------------|
A|------------------------------7-7-7--7-7-7--7-7-7--7-7-7---|
E|--3-3-3--3-3-3--7-7-7--5-5-5-------------------------------|


Verses

G|-----------------------------------------------------------|
D|------------------------------5-5-5------------------------| 
A|-----------------------------------------------------------|
E|--3-3-3--3-3-3--3-3-3--3-3-3---------3-3-3--3-3-3--3-3-3---|

G|-----------------------------------------------------------|
D|-----------------------------------------------------------|
A|------------------------------7-7-7--7-7-7--7-7-7--7-7-7---|
E|--3-3-3--3-3-3--7-7-7--5-5-5-------------------------------|

G|-----------------------------------------------------------|
D|------------------------------5-5-5------------------------| 
A|-----------------------------------------------------------|
E|--3-3-3--3-3-3--3-3-3--3-3-3---------3-3-3--3-3-3--3-3-3---|

G|-----------------------------------------------------------|
D|-----------------------------------------------------------|
A|------------------------------7-7-7--7-7-7--7-7-7--5-5-5---|
E|--3-3-3--3-3-3--7-7-7--5-5-5-------------------------------|


Pre Chorus 00:47

G|-----------------------------|
D|-----------------------------| (2 times)
A|--3-3--3-3-3-2--2-2-2-2-0----|
E|--------------------------3--|


Verse 00:53

G|-----------------------------------------------------------|
D|------------------------------5-5-5------------------------| 
A|-----------------------------------------------------------|
E|--3-3-3--3-3-3--3-3-3--3-3-3---------3-3-3--3-3-3--3-3-3---|

G|-----------------------------------------------------------|
D|-----------------------------------------------------------|
A|------------------------------7-7-7--7-7-7--7-7-7--5-5-5---|
E|--3-3-3--3-3-3--7-7-7--5-5-5-------------------------------|


Pre Chorus 01:04

G|-----------------------------|
D|-----------------------------| (2 times)
A|--3-3--3-3-3-2--2-2-2-2-0----|
E|--------------------------3--|

G|-----------------------------------|
D|-----------------------------------| 
A|-----------------------------------|
E|--3-3-3-3-3-3-3-3-3-3-3-3-3-3-3-3--|


Chorus (01:13)

G|---------------------------------------------------------------|
D|------------------------------5-5-5-5-5-5-5-5-5-5-5-5-5-5-5-5--|
A|--3-3--3-3-3--3-3-3--3-3-3--3----------------------------------|
E|---------------------------------------------------------------|

G|-----------------------------|
D|-----------------------------|
A|--3-3--3-3-3--3-3-3--3-3-3---|
E|-----------------------------|


Verse 01:21

G|-----------------------------------------------------------|
D|------------------------------5-5-5------------------------| 
A|-----------------------------------------------------------|
E|--3-3-3--3-3-3--3-3-3--3-3-3---------3-3-3--3-3-3--3-3-3---|

G|-----------------------------------------------------------|
D|------------------------------5-5-5------------------------| 
A|-----------------------------------------------------------|
E|--3-3-3--3-3-3--3-3-3--3-3-3---------3-3-3--3-3-3--3-3-3---|

G|-----------------------------------------------------------|
D|-----------------------------------------------------------|
A|------------------------------7-7-7--7-7-7--7-7-7--7-7-7---|
E|--3-3-3--3-3-3--7-7-7--5-5-5-------------------------------|

G|-----------------------------------------------------------|
D|------------------------------5-5-5------------------------| 
A|-----------------------------------------------------------|
E|--3-3-3--3-3-3--3-3-3--3-3-3---------3-3-3--3-3-3--3-3-3---|

G|-----------------------------------------------------------|
D|-----------------------------------------------------------|
A|------------------------------7-7-7--7-7-7--7-7-7--5-5-5---|
E|--3-3-3--3-3-3--7-7-7--5-5-5-------------------------------|


Pre Chorus 01:51

G|-----------------------------|
D|-----------------------------| (2 times)
A|--3-3--3-3-3-2--2-2-2-2-0----|
E|--------------------------3--|


Verse 01:57

G|-----------------------------------------------------------|
D|------------------------------5-5-5------------------------| 
A|-----------------------------------------------------------|
E|--3-3-3--3-3-3--3-3-3--3-3-3---------3-3-3--3-3-3--3-3-3---|

G|-----------------------------------------------------------|
D|-----------------------------------------------------------|
A|------------------------------7-7-7--7-7-7--7-7-7--5-5-5---|
E|--3-3-3--3-3-3--7-7-7--5-5-5-------------------------------|


Pre Chorus 02:09

G|-----------------------------|
D|-----------------------------| (2 times)
A|--3-3--3-3-3-2--2-2-2-2-0----|
E|--------------------------3--|

G|-----------------------------------|
D|-----------------------------------| 
A|-----------------------------------|
E|--3-3-3-3-3-3-3-3-3-3-3-3-3-3-3-3--|


Chorus (02:17)

G|---------------------------------------------------------------|
D|------------------------------5-5-5-5-5-5-5-5-5-5-5-5-5-5-5-5--|
A|--3-3--3-3-3--3-3-3--3-3-3--3----------------------------------|
E|---------------------------------------------------------------|

G|---------------------------------------------------------------|
D|------------------------------2-2-2-2-2-2-2-2------------------|
A|--3-3--3-3-3--3-3-3--3-3-3--3----------------------------------|
E|----------------------------------------------3-3-3-3-3-3-3-3--|

G|---------------------------------------------------------------|
D|---------------------------------------------------------------|
A|--3-3--3-3-3--3-3-3--3-3-3--3----------------------------------|
E|------------------------------3-3-3-3-3-3-3-3-3-3-3-3-3-3-3-3--|

G|---------------------------|
D|--5-5--4-4-4--2-2-2--0-0---|
A|---------------------------|
E|---------------------------|


Bridge 02:38

G|-----------------------------------------------------------|
D|------------------------------5-5-5------------------------| (3 times)
A|-----------------------------------------------------------|
E|--3-3-3--3-3-3--3-3-3--3-3-3---------3-3-3--3-3-3--3-3-3---|

G|-----------------------------------------------------------------|
D|-----------------------------------------------------------------| 
A|------------------------------10-10-10--10-10-10--10-10-10--10\--|
E|--3-3-3--3-3-3--3-3-3--3-3-3-------------------------------------|


Pre Chorus 03:01

G|-----------------------------|
D|-----------------------------| (2 times)
A|--3-3--3-3-3-2--2-2-2-2-0----|
E|--------------------------3--|

G|-----------------------------------|
D|-----------------------------------| 
A|-----------------------------------|
E|--3-3-3-3-3-3-3-3-3-3-3-3-3-3-3-3--|


Chorus (03:10)

G|---------------------------------------------------------------|
D|------------------------------5-5-5-5-5-5-5-5-5-5-5-5-5-5-5-5--|
A|--3-3--3-3-3--3-3-3--3-3-3--3----------------------------------|
E|---------------------------------------------------------------|

G|---------------------------------------------------------------|
D|------------------------------2-2-2-2-2-2-2-2------------------|
A|--3-3--3-3-3--3-3-3--3-3-3--3----------------------------------|
E|----------------------------------------------3-3-3-3-3-3-3-3--|

G|---------------------------------------------------------------|
D|------------------------------5-5-5-5-5-5-5-5-5-5-5-5-5-5-5-5--|
A|--3-3--3-3-3--3-3-3--3-3-3--3----------------------------------|
E|---------------------------------------------------------------|

G|---------------------------------------------------------------|
D|---------------------------------------------------------------|
A|--3-3--3-3-3--3-3-3--3-3-3--3----------------------------------|
E|------------------------------3-3-3-3-3-3-3-3-3-3-3-3-3-3-3-3--|

G|---------------------------------------------------------------|
D|---------------------------------------------------------------|
A|--3-3--3-3-3--3-3-3--3-3-3--3----------------------------------|
E|------------------------------3-3-3-3-3-3-3-3-3-3-3-3-3-3-3-3--|

G|-----------------------------------|
D|-----------------------------------|
A|--3-3--3-2-2--2-0-0--0-3-3--3------|
E|------------------------------3----|




Suggest correction new What's this?
You can suggest a correction to this tab. Community and Mods will review your correction and vote to approve or reject it.
comments
print report bad tab
guest
You may want to rate the tab now too:
select rating
Please do not post tabs as comments. Select "correction" instead!