Oops, an error
Loading. Please wait.

Long Division Tab

version 1
version 1

Whole song

Interactive

9,864 views 6 this week
3 commentsread comments
1 2 3 4 5
accurate
x 5
add to favorites
launch autoscroll
font size
0
reset
how to read this tab
guitar tuner
Tab Pro tools
  • play this tab
  • loop segment
  • change instrument
  • show fretboard
  • metronome
×
Best way to learn
"Long Division"
Autoscroll
slow
fast
+/-
esc
set tempo
stop
Contributor
Intro/Verse
E|----2---------------------------------|
B|--------3-----------------3-----3-----|
G|------------4---------------------4---|
D|5-----------------------5-----5-------|
A|--------------------------------------|
E|--------------------------------------|

Verse part 2
E|--------------------------------|
B|--------------------------------| x2
G|5-5-5-5-5-5-5-5-4-4-4-4-4-4-4-4-|
D|--------------------------------|
A|3-3-3-3-3-3-3-3-2-2-2-2-2-2-2-2-|
E|--------------------------------|

His head was a city of paper buildings
And the echoes that remained
Of old friends and lovers
Their features bleeding together in his brain
Once it started it's harder to tell them apart

He was always distracted
By the very mention of an open door
'Cause he had sworn not to be what he'd been before

Chorus:
To be a remain, remain, remain, remainder
E|--------------------------------|
B|--------------------------------| x2
G|55--55--55--55------------------|
D|55--55--55--55--5555555555555555|
A|33--33--33--33--5555555555555555|
E|----------------3333333333333333|


Verse 2

The television was snowing softly
As she hunted for her keys
She said she never envisioned
Him the type of person capable of such deceit

And they carried on like long division
Cause it was clear with every page
Oh, that they were further away
From a solution that would play

Chorus 2
Without a remain, remain, remain, remainder

Without a remain, remain, remain, remainder
E|--------------------------------|
B|--------------------------------|
G|55--55--55--55------------------|
D|55--55--55--55--2222222255555555|
A|33--33--33--33--2222222255555555|
E|----------------0000000033333333|

Without a remain, remain, remain, remainder
Without a remain, remain, remain, remainder


Bridge
E|------------------------|
B|------------------------| Fast Picking
G|12-12-12-12-12-12-12-12-|
D|------------------------|
A|10-10-10-10-10-10-10-10-|
E|------------------------|

E|------------------------| x3
B|12-12-12-12-12-12-10-10-| Fast Picking
G|------------------------|
D|------------------------|
A|------------------------|
E|------------------------|

E|------------------------|
B|12-12-13-13-15-15-15-15-| Fast Picking
G|------------------------|
D|------------------------|
A|------------------------|
E|------------------------|

He has sworn not to be what he'd been before

To be the remain, remain, remain, remainder
To be the remain, remain, remain, remainder
To be the remain, remain, remain, remainder
To be the remain, remain, remain, remainder
To be the remain, remain, remain, remainder
To be a remain, remain, remain, remainder

comments
print report bad tab
3 comments total.
0 reply
keneticshark24 wrote on May 5 2008, 11:26 am

Probably my favorite song

Thanks

0 reply
dern329 wrote on May 6 2008, 05:08 pm

on the youtube videos currently posted for this song ben has his capo on the third fret.

0 reply
tbuhler wrote on May 24 2008, 11:55 pm

Good, pretty accurate tab, I dislike the formatting but it's great to have this song on UG when there is no other copies of it!

I want to post or [tab]
guest
You may want to rate the tab now too:
select rating
Please do not post tabs as comments. Select "correction" instead!