Oops, an error
Loading. Please wait.

Long Division Tab

version 2
version 2

Whole song

Interactive

21,847 views 21 this week
2 commentsread comments
1 2 3 4 5
x 11
add to favorites
launch autoscroll
font size
0
reset
how to read this tab
guitar tuner
Autoscroll
slow
fast
+/-
esc
set tempo
stop
Help us to improve Ultimate-Guitar.com Take our survey!
×
Author
Capo
3rd fret
-------------------------------------------------------------------------------
                             LONG DIVISION - Death Cab for Cutie
-------------------------------------------------------------------------------
Tabbed by: A.J. Conner
Email: ajconner123@gmail.com

Tuning: EADGBe, CAPO 3RD FRET

The other tab for this song was way off.
Hope you find some use out of this.
Remember, capo 3rd fret, fret numbers relative to capo.

   MAIN RIFF -Verse (His head was a city...) 
e|---------------------------------------------------------------------------|
B|---------------------------------------------------------------------------|
G|-----8-----------4---4--------------------------Repeat---------------------|
D|-------6----------------6====----------------------------------------------|
A|---------6=====4---4-------------------------------------------------------|
E|--0=======-----------------------------------------------------------------|

  Bridge riff (Once it started...Oh ho ho) This is also the pre-chorus riff.
  (Cause he had sworn not to be what he'd been before) 
e|--000-0-0-0-0-0-0-0-0-0-0-0-0----0-0-0-0-0-0-------------------------------|
B|--000-0-0-0-0-0-0-0-0-0-0-0-0----0-0-0-0-0-0---This-chord------------------|
G|--444-4-4-4-4-4-4-4-4-4-4-4-4----1-1-1-1-1-1---is-only-played--------------|
D|--222-2-2-2-2-2-2-2-2-2-2-2-2----2-2-2-2-2-2---before-the-chorus.----------|
A|--000-0-0-0-0-x-x-x-x-x-x-x-x----2-2-2-2-2-2-------------------------------|
E|--------------4-4-4-4-4-4-4-4----0-0-0-0-0-0-------------------------------|

  Chorus (to be a remain, remain, remain...)
e|--0-0--0-0--0-0--0-0-0-0-0-0=----------------------------------------------|
B|--0-0--0-0--0-0--0-0-0-0-0-0=----------------------------------------------|
G|--2-2--2-2--2-2--2-2-1-1-1-1=----------------------------------------------|
D|--1-1--2-2--1-1--2-2-2-2-2-2=----------------------------------------------|
A|--0-0--0-0--0-0--0-0-0-2-2-2=----------------------------------------------|
E|-----------------------0-0-0=----------------------------------------------|

  2nd Chorus
e|--0-0--0-0--0-0--0-0-0-0-0-0=--0-0--0-0--0-0--0-0--------------------------|
B|--0-0--0-0--0-0--0-0-0-0-0-0=--0-0--0-0--0-0--0-0--------------------------|
G|--2-2--2-2--2-2--2-2-1-1-1-1=--2-2--2-2--2-2--2-1--6--6-6-6--8--8-8--------|
D|--1-1--2-2--1-1--2-2-2-2-2-2=--1-1--2-2--1-1--2-2--6--6-6-6--6--6-6--------|
A|--0-0--0-0--0-0--0-0-0-2-2-2=--0-0--0-0--0-0--0-0--4--4-4-4--7--7-7--------|
E|-----------------------0-0-0=----------------------0--0-0-0----------------|

  Fast bit: Play as fast as you can.
e|---------------------------------------------------------------------------|
B|---------------------------------------------------------------------------|
G|--999999999999999999999999-------------------------------------------------|
D|--xxxxxxxxxxxxxxxxxxxxxxxx-------------------------------------------------|
A|--777777777777777777777777-------------------------------------------------|
E|---------------------------------------------------------------------------|

Order:
Verse
Bridge
Verse
Bridge--Pre-chorus
Chorus
Verse
Bridge
Verse
Bridge--Pre-chorus
Chorus and chorus 2
Fast bit
Bridge--Pre-chorus
Repeat chorus until end.

| /  slide up
| \  slide down
| h  hammer-on
| p  pull-off
| =  let ring
| +  harmonic
| x  Mute note
===============================================================================
Suggest correction
comments
print report bad tab
2 comments total.
0 reply
ole-indiekid 151 Jun 23, 2008 09:53 AM

thanks, great tab dude. works perfect. 5*

0 reply
sb00020 102 Jun 30, 2014 04:08 PM

I think your chorus is right, but you can add the vocal part in for a bit of variation quite easily. The last chord is a bit of a stretch, but it sounds great.



---------------------------------------------0------
-0--0--------0--0------0--0---------0--0-----0------
-2--2--------2--2------4--4---------6--6-----1------
-1--1--------2--2------1--1---------2--2-----2------
-0--0--------0--0------0--0---------0--0-----2------
---------------------------------------------0------

guest
You may want to rate the tab now too:
select rating
Wanna post a correction for this tab? Suggest correction