Oops, an error
Loading. Please wait.

Marching Bands Of Manhattan Bass Tab

12,664 views 9 this week
6 commentsread comments
1 2 3 4 5
x 14
add to favorites
launch autoscroll
font size
0
reset
guitar tuner
Autoscroll
slow
fast
+/-
esc
set tempo
stop
Help us to improve Ultimate-Guitar.com Take our survey!
×
Author
Difficulty
novice
-------------------------------------------------------------------------------
			  MARCHING BANDS OF MANHATTAN - Death Cab for Cutie
-------------------------------------------------------------------------------

Tabbed By : Bizzles
e-mail: sandkid6@aol.com 

Tuning: Standard

Start at :25.. I'm not sure if this is actually bass but i tabbed it out anyway. 

Intro x4
G|1717171717171717-16161616--------------------------1717171717171717\/-x4---|
D|--------------------------17171717------------------------------------x4---|
A|----------------------------------1717171717171717--------------------x4---|
E|----------------------------------------------------------------------x4---|


x2
G|---------------------------------------------x2----------------------------|
D|---------------------------------------------x2----------------------------|
A|88888888-1212121212121212\33333333-3/5555555-x2----------------------------|
E|---------------------------------------------x2----------------------------|


G|-------------------------------------------x4------------------------------|
D|-------------------------------------------x4------------------------------|
A|33333333-2222----------55555555-5/8888888--x4------------------------------|
E|--------------33333333---------------------x4------------------------------|


Then play this until the end.
G|--------------------------12----------------------------------------------|
D|------------------------10------------------------------------------------|
A|888888-1010-12121212-12-------33333333-3/5555555--------------------------|
E|--------------------------------------------------------------------------|

That's it. 

| /  slide up
| \  slide down
| h  hammer-on
| p  pull-off
| ~  vibrato
| +  harmonic
| x  Mute note
===============================================================================
Suggest correction
comments
print report bad tab
6 comments total. Showing first comments.
0 reply
theantonym 101 Jan 08, 2008 05:33 PM

thanks for posting this tab. it's good. and the intro's not bad. 5

0 reply
dreadnaught_9 10 Aug 13, 2008 07:33 PM

shweet tabbing man. ^.^ i'll drop a 5 as well. :3

0 reply
Nasal_Snack4 10 Sep 10, 2008 07:32 PM

Simple, yet superb. Very good song. Thanks! 5*

guest
You may want to rate the tab now too:
select rating
Wanna post a correction for this tab? Suggest correction