Oops, an error
Loading. Please wait.

Marching Bands Of Manhattan Tab

version 2
version 2

Whole song

2,794 views 1 this week
1 commentread comment
1 2 3 4 5
please rate
add to favorites
launch autoscroll
font size
0
reset
how to read this tab
guitar tuner
Autoscroll
slow
fast
+/-
esc
set tempo
stop
Help us to improve Ultimate-Guitar.com Take our survey!
×
Author
Easy tab 
Standard tuning

e||-------------------------------------------------------------------||
B||--1-1-1-1-1-1-1-1-0-0-0-0------------------------------------------||
G||--------------------------0-0-0-0----------------------------------|| x4
D||----------------------------------0-0-0-0-0-0-0-0------------------||
A1|--------------------------------------------------3-3-3-3-3-3-3-3--||
E||-------------------------------------------------------------------||

e||---------------------------------------------------------------------||
B||--1-1-1-1-1-1-0-0----------------------------------------------------||
G||------------------2-2-2-2-2-2-0-0------------------------------------|| x2
D||----------------------------------2-2-2-2-2-2-2-2-2-0-0-0-0-0-0-0-0--||
A1|---------------------------------------------------------------------||
E||---------------------------------------------------------------------||

e||-------------------------------------------------------------------||
B||--1-1-1-1-1-1-1-1-0-0-0-0------------------------------------------||
G||--------------------------0-0-0-0----------------------------------|| 
D||----------------------------------0-0-0-0-0-0-0-0------------------||
A1|--------------------------------------------------3-3-3-3-3-3-3-3--||
E||-------------------------------------------------------------------||
x4 (or until the end of the song)


Suggest correction
Give kudos to tab author, rate the tab!
1 2 3 4 5
comments
print report bad tab
1 comment total.
0 reply
riprandyrhoads 15 wrote on September 26 2009, 11:10 pm

woa. dude this doesnt sound anything like it. what is this?

guest
You may want to rate the tab now too:
select rating
Wanna post a correction for this tab? Suggest correction