Oops, an error
Loading. Please wait.

Meet Me On The Equinox Bass Tab

version 1
version 1

Whole song

Interactive

2,362 views 3 this week
1 commentread comment
1 2 3 4 5
please rate
add to favorites
launch autoscroll
font size
0
reset
guitar tuner
Autoscroll
slow
fast
+/-
esc
set tempo
stop
Help us to improve Ultimate-Guitar.com Take our survey!
×
Difficulty
intermediate
Meet Me On The Equinox - Death Cab For Cutie
No Bass in the 1st Verse or the 1st Chorus

Verse 1
G|----------|---|-----------|---|----------|---------|---------|---------|
D|----------|---|-----------|---|----------|---------|---------|---------|
A|----------|---|-----------|---|----------|---------|---------|---------|
E|---3-0-3--|---|----3-0-3--|---|---3-0-3--|-3--2--0-|---3-0-3-|-3-5b-3-2|

G|--|--|-----------|-------------|-----------|---------|---------|---------|
D|--|--|-----------|-------------|-----------|---------|---------|---------|
A|--|--|-----------|-------------|-----------|---------|---------|---------|
E|--|--|----3-0-3--|-0h2p0h3p0h2-|-----3-0-3-|-3--2--0-|---3-0-3-|-3-5b-3-2|

G|--|--|---------|-------------|
D|--|--|---------|-------------|
A|--|--|---------|------2------|
E|--|--|---3-0-3-|-3h5-3-3-2h3-|

Chorus 2: Everythng, Everything...
G|----|------|------|-------------|
D|----|------|------|-------------|
A|----|------|------|------2------|
E|----|------|3-0-3-|-3h5-3-3-2h3-|

G|-----|------|------|---------------|
D|-----|------|------|---------------|
A|-----|------|------|-------2-------|
E|-----|------|3-0-3-|-3h5-3---3-2h3-|

G|----|----|----|----|
D|----|----|----|----|
A|----|----|----|----|
E|----|----|----|----|

G|-------|---------|---------|-------------|
D|-------|---------|---------|-------------|
A|-------|---------|---------|------2------|
E|-3-0-3-|-3-5b-3-2|---3-0-3-|-3h5-3-3-2h3-|

Interlude: This Part is played very lightly. It wouldnt make much of a difference if you 
it out.
G|----------------------------------|
D|----------------------------------|
A|-15X 16--17X 16--12X 16--7X 16----|
E|----------------------------------|

G|----------------------------------|
D|----------------------------------|
A|-15X 16--19X 16--12X 16--7X 16----|
E|----------------------------------|

Chorus2
G|----|-----|------|-------------|
D|----|-----|------|-------------|
A|----|-----|------|-------------|
E|----|-----|3-0-3-|-0h2p0h3p0h2-|

G|-----|------|------|---------------|
D|-----|------|------|---------------|
A|-----|------|------|-------2-------|
E|-----|------|3-0-3-|-3h5-3---3-2h3-|


G|----|----|----|----|
D|----|----|----|----|
A|----|----|----|----|
E|----|----|----|----|

G|----|----|----|----|
D|----|----|----|----|
A|----|----|----|----|
E|----|----|----|----|

Guitar Interlude
G|----|----------|---|-----------|
D|----|----------|---|-----------|
A|----|----------|---|-----------|
E|----|---3-0-3--|---|----3-0-3--| X2

The rest is played by the two guitars. You could play the same notes as them, but its 
necessary.

Leave a comment if you notice a mistake.
By Bobert5
Suggest correction
Give kudos to tab author, rate the tab!
1 2 3 4 5
comments
print report bad tab
1 comment total.
+1 reply
bassbun 10 wrote on April 8 2010, 07:44 pm

WOW IS THIS WRONG... why post it?

guest
You may want to rate the tab now too:
select rating
Please do not post tabs as comments. Select "correction" instead!