Oops, an error
Loading. Please wait.

Meet Me On The Equinox Bass Tab

version 2
version 2

Whole song

Interactive

941 views 1 this week
no commentswrite comment
1 2 3 4 5
please rate
add to favorites
launch autoscroll
font size
0
reset
guitar tuner
Tab Pro tools
  • play this tab
  • loop segment
  • change instrument
  • show fretboard
  • metronome
×
Best way to learn
"Meet Me On The Equinox"
Autoscroll
slow
fast
+/-
esc
set tempo
stop
Contributor
Difficulty
novice
MEET ME ON THE EQUINOX - Death Cab for Cutie
Tabbed By: CSC      Tuning: EADG

For reference, the sustained G's in the intro and toward the end
occur on the words "middle" and "darling."

  0:18                              0:33
  x   x   x   x                     x   x   x   x    x   x   x   x
G|----------------|----------------|----------------|----------------|
D|5>--------------|----hold-7------|5>--------------|----------------|
A|----------------|-----bars-------|----------------|----------------|
E|----------------|----------------|----------------|----------------|
0:36
  x   x   x   x    x   x   x   x    x   x   x   x    x   x   x   x
G|----------------|----------------|----------------|----------------|
D|1---------------|----------------|----------------|----------------|
A|----------------|3---------------|----------------|----------------|
E|----------------|----------------|----------------|----------------|
0:43
  x   x   x   x    x   x   x   x    x   x   x   x    x   x   x   x
G|----------------|----------------|----------------|----------------|
D|1---------------|----------------|----------------|----------------|
A|----------------|3---------------|----------------|----------------|
E|----------------|----------------|--1h3-3---------|----------------|
0:51
  x   x   x   x    x   x   x   x    x   x   x   x    x   x   x   x
G|----------------|----------------|----------------|----------------|
D|----------------|----------------|----------------|----------------|
A|----------------|----------------|----------------|----------------|
E|--1h3-3---------|----------------|--1h3-3---------|--1h3-1h3---3---|
0:58
  x   x   x   x    x   x   x   x    x   x   x   x    x   x   x   x
G|----------------|----------------|----------------|----------------|
D|----------------|--3-------------|----------------|----------------|
A|----------------|----5---3---3---|1---------------|----------------|
E|--1h3-3---------|----------------|----------------|----------------|
1:05
  x   x   x   x    x   x   x   x    x   x   x   x    x   x   x   x
G|----------------|----------------|----------------|----------------|
D|----------------|----------------|----------------|----------------|
A|----------------|----------------|----------------|----------------|
E|--1h3-3---------|--1h3-1h3---3---|--1h3-3---------|--1h3-1h3---3---|
1:12
  x   x   x   x    x   x   x   x    x   x   x   x    x   x   x   x
G|----------------|----------------|----------------|----------------|
D|----------------|--3-------------|----------------|----------------|
A|----------------|----5---3---3---|1---------------|----------------|
E|--1h3-3---------|----------------|----------------|----------------|
1:19
  x   x   x   x    x   x   x   x    x   x   x   x    x   x   x   x
G|----------------|----------------|----------------|----------------|
D|----------------|------3-5---3---|1-1-1-1-1-1-1-1-|----------------|
A|----------------|--3-1-----------|----------------|3-3-3-3-3-3-3-1-|
E|--1h3-3---------|----------------|----------------|----------------|
1:26
  x   x   x   x    x   x   x   x    x   x   x   x    x   x   x   x
G|----------------|----------------|----------------|----------------|
D|----------------|----------------|1-1-1-1-1-1-1-1-|----------------|
A|------1---0-----|------1---0-----|----------------|3-3-3-3-3-3-3-1-|
E|--1-3-------3-1-|3-1-3-------3---|----------------|----------------|
1:33
  x   x   x   x    x   x   x   x    x   x   x   x    x   x   x   x
G|----------------|----------------|----------------|----------------|
D|----------------|----------------|1-1-1-1-1-1-1-1-|----------------|
A|------1---0-----|------1---0-----|----------------|1-1-1-1-1-1-1-1-|
E|3-1-3-------3-1-|3-1-3-------3---|----------------|----------------|
1:41
  x   x   x   x    x   x   x   x    x   x   x   x    x   x   x   x
G|----------------|----------------|----------------|----------------|
D|----------------|----------------|----------------|----------------|
A|3-3-3-3-3-3-3-1-|----------------|----------------|----------------|
E|----------------|3---------------|--1h3-1h3---3---|--1h3-3---------|
1:48
  x   x   x   x    x   x   x   x    x   x   x   x    x   x   x   x
G|----------------|----------------|----------------|----------------|
D|------3-5---3---|1---------------|1---------------|3---------------|
A|--3-1-----------|----------------|----------------|----------------|
E|----------------|----------------|----------------|----------------|
1:54
  x   x   x   x    x   x   x   x    x   x   x   x    x   x   x   x
G|----------------|----------------|----------------|----------------|
D|3---------------|----------------|----------------|----------------|
A|----------------|3---------------|3---------------|----------------|
E|----------------|----------------|----------------|3---------------|
2:02
  x   x   x   x    x   x   x   x    x   x   x   x    x   x   x   x
G|----------------|----------------|----------------|----------------|
D|----------------|1---------------|1---------------|2-----------2---|
A|----------------|----------------|----------------|----------------|
E|3---------------|----------------|----------------|----------------|
2:09
  x   x   x   x    x   x   x   x    x   x   x   x    x   x   x   x
G|----------------|----------------|----------------|----------------|
D|2---------------|----------------|----------------|----------------|
A|----------------|3-----------3---|3-----------5---|----------------|
E|----------------|----------------|----------------|3-----------3/--|
2:17
  x   x   x   x    x   x   x   x    x   x   x   x    x   x   x   x
G|----------------|----------------|----------------|----------------|
D|----------------|----------------|----------------|----------------|
A|----------------|----------------|----------------|------1---0-----|
E/5---------------|----------------|----------------|3-1-3-------3-1-|
2:25
  x   x   x   x    x   x   x   x    x   x   x   x    x   x   x   x
G|----------------|----------------|----------------|----------------|
D|----------------|1-1-1-1-1-1-1-1-|----------------|----------------|
A|------1---0-----|----------------|3-3-3-3-3-3-3-3-|------1---0-----|
E|3-1-3-------3---|----------------|----------------|3-1-3-------3-1-|
2:30
  x   x   x   x    x   x   x   x    x   x   x   x    x   x   x   x
G|----------------|----------------|----------------|----------------|
D|----------------|1-1-1-1-1-1-1-1-|----------------|----------------|
A|------1---0-----|----------------|1-1-1-1-1-1-1-1-|3-3-3-3-3-3-3-3-|
E|3-1-3-------3---|----------------|----------------|----------------|

  x   x   x   x    x   x   x   x    x   x   x   x    x   x   x   x
G|----------------|----------------|----------------|----------------|
D|----------------|1-1-1-1-1-1-1-1-|----------------|----------------|
A|----------------|----------------|3-3-3-3-3-3-3-3-|----------------|
E|3-3-3-3-3-3-3-3-|----------------|----------------|--1h3-3---------|
2:45
  x   x   x   x    x   x   x   x    x   x   x   x    x   x   x   x
G|----------------|----------------|----------------|----------------|
D|----------------|----------------|----------------|----------------|
A|----------------|----------------|----------------|----------------|
E|----------------|--1h3-3---------|----------------|--1h3-3---------|
2:52
  x   x   x   x    x   x   x   x    
G|----------------|----------------|
D|----------------|----------------|
A|----------------|----------------|
E|----------------|--1h3-3---------|

Rest for 7 bars

3:08                                3:23
  x   x   x   x                     x   x   x   x    x   x   x   x
G|----------------|----------------|----------------|----------------|
D|5>--------------|----hold-7------|5>--------------|----------------|
A|----------------|-----bars-------|----------------|----------------|
E|----------------|----------------|----------------|----------------|
3:27
  x   x   x   x    x   x   x   x    
G|----------------|----------------|----------------|
D|1-1-1-1-1-1-1-1-|----------------|----------------|
A|----------------|3-3-3-3-3-3-3-1-|----------------|
E|----------------|----------------|3>--------------|

comments
We did not receive enough feedback on this tab! Please rate:
print report bad tab
1 2 3 4 5
I want to post or [tab]
guest
You may want to rate the tab now too:
select rating
Please do not post tabs as comments. Select "correction" instead!