Oops, an error
Loading. Please wait.

Meet Me On The Equinox Tab

version 2
version 2

Whole song

Interactive

20,700 views 9 this week
2 commentsread comments
1 2 3 4 5
accurate
x 13
add to favorites
launch autoscroll
font size
0
reset
how to read this tab
guitar tuner
Tab Pro tools
  • play this tab
  • loop segment
  • change instrument
  • show fretboard
  • metronome
×
Best way to learn
"Meet Me On The Equinox"
Autoscroll
slow
fast
+/-
esc
set tempo
stop
Contributor
Difficulty
novice
----------------------------------------------------------------------------
                             Meet Me on the Equinox - Death Cab 
----------------------------------------------------------------------------

Tabbed by: Ashly Badgett
Email: tapeTEMPO@gmail.com

I'm not saying this is the correct way to play it, but this is how I play it. 

If you would like to see a video of me playing it: 
http://www.youtube.com/watch?v=i-hu9pUlDBA

I'm going to assume you don't have a delay pedal, and add extra notes. Here the 
lick that is played throughout the whole song. (definitely not exact)  
INTRO LICK/Lick played throughout whole song:

e|------------------------------|
B|--------6-----6-----6--6--6---|
G|----7-----7-------7--7--7--7--|
D|--5---5-----5---5-------------|
A|------------------------------|
E|------------------------------|

Verse chords: 

e|-------------|
B|-------------|
G|------3--5---|
D|--5---3--5---|
A|--5---1--3---|
E|--3----------|

Chorus chords: 

e|-----------------|
B|-----------------|
G|--8---5----------|
D|--8---5--5-------|
A|--6---3--5-------|
E|---------3-------|

Verse

e|-------------|
B|-------------|
G|------3--5---|
D|--5---3--5---|
A|--5---1--3---|
E|--3----------|

Chorus                 (Everything, Everything, Everything ends.. )

e|--------------------------------------|
B|--------------------------------------|
G|--8---5-------8--5------8-----5-------|
D|--8---5--5----8--5--5---8--8--5--5----|
A|--6---3--5----6--3--5---6--8--3--5----|
E|---------3----------3------6-----3----|

Bridge

e|--------------------------------------------------------------------------|
B|--------3---------3----------3---------3--------3---------3--------3------|
G|------3---------3----------3---------3--------3---------3--------3--------|
D|----3---------3----------1---------0--------0---------3--------3----------|
A|--6--------------------3---------------------------6---------7------------|
E|------------1-------------------3---------1-------------------------------|

e|--------------------------------------------------------------------------|
B|---------3-----------3--------3-------------------------------------------|
G|------3------------3--------3---------------------------------------------|
D|----1------------0--------0-----------------------------------------------|
A|--3-----------------------------------------------------------------------|
E|---------------3--------1-------------------------------------------------|

Chorus               (Everything, Everything, Everything ends.. )
        
e|---------------------------------------------|
B|---------------------------------------------|
G|--8---5------8--5------8-----5--------8-5----|
D|--8---5--5---8--5--5---8--8--5--5-----8-5-5--|
A|--6---3--5---6--3--5---6--8--3--5-----6-3-5--|
E|---------3---------3------6-----3---------3--|

Lick after the chorus

e|-----------------------------------|
B|----- 8-8-8\-------11--11--11-------|
G|-----7-7-7\-------10--10--10-------|
D|-----------------------------------|
A|-----------------------------------|
E|-----------------------------------|
             
Verse

e|-------------|
B|-------------|
G|------3--5---|
D|--5---3--5---|
A|--5---1--3---|
E|--3----------|

Chorus: 

(Strumming slows down) 

e|-----------------|
B|-----------------|
G|--8---5----------|
D|--8---5--5-------|
A|--6---3--5-------|
E|---------3-------|




| /  slide up
| \  slide down
| h  hammer-on
| p  pull-off
| ~  vibrato
| +  harmonic
| x  Mute note
=============================================================
comments
print report bad tab
2 comments total.
0 reply
jessicagaspan wrote on July 21 2014, 03:51 pm

I tried playing with the song and i THINK that the lick sounds more like..
e|------------------------------|
B|--------6-----------6--6--6---|
G|----------------------7--7----|
D|--5---5-----5---5-------------|
A|----8-----8---8---8---------8-|
E|------------------------------|

+1 reply
jessicagaspan wrote on July 21 2014, 04:06 pm

I lied. It's definitely this:
e|----------------------------------|
B|--------6-------------6---6-------|
G|------------------------7---------|
D|--5---5-------5---5-----------5---|
A|----8-------8---8---8-------8---8-|
E|----------------------------------|
1 + 2 + 3 + 4 + 1 + 2 + 3 + 4 +...

I want to post or [tab]
guest
You may want to rate the tab now too:
select rating
Please do not post tabs as comments. Select "correction" instead!