Oops, an error
Loading. Please wait.

Meet Me On The Equinox Tab

version 3
version 3

Whole song

Interactive

3,015 views 1 this week
no commentswrite comment
1 2 3 4 5
1 last vote to show rating
add to favorites
launch autoscroll
font size
0
reset
how to read this tab
guitar tuner
Autoscroll
slow
fast
+/-
esc
set tempo
stop
Help us to improve Ultimate-Guitar.com Take our survey!
×
Author
Capo
3rd fret
------------------------------------------------------------------------
      Meet Me on the Equinox Acoustic- Death Cab for Cutie
------------------------------------------------------------------------

capo- 3rd fret
standard tuning


intro/ main riff
-----------------------------------------|
---------3--------------3---3------------|
--------------------------4---4----------|
----0----------0---0---------------0-----|
--2---2------2---2---------------2-------|
-----------------------------------------|


chorus

    C            Am
--0-0-0-0------0-0-0-0-----------------------------------|
--1-1-1-1------1-1-1-1-------------3------------3-0------|
--0-0-0-0------2-2-2-2-----------------------------------|
--2-2-2-2------2-2-2-2--------0---------0---0------------|
--3-3-3-3------0-0-0-0------2---2-----2---2--------------|
--0-0-0-0------0-0-0-0-----------------------------------|


2nd chorus

    C            Am
--0-0-0-0------0-0-0-0-----------------------------------|
--1-1-1-1------1-1-1-1-------------3------------3-0------|
--0-0-0-0------2-2-2-2-----------------------------------|
--2-2-2-2------2-2-2-2--------0---------0---0------------|   x2
--3-3-3-3------0-0-0-0------2---2-----2---2--------------|
---------------------------------------------------------|

     C         G            Am
--0-0-0-0----3-3-3-3-----0-0-0-0----------------------------|
--1-1-1-1----0-0-0-0-----1-1-1-1-----------3----------3---3-|
--0-0-0-0----0-0-0-0-----2-2-2-2------------------------4---|
--2-2-2-2----0-0-0-0-----2-2-2-2-------0--------0--0--------|
--3-3-3-3----2-2-2-2-----0-0-0-0-----2---2-----2--2---------|
-------------3-3-3-3----------------------------------------|


interlude 

-0-0-0------0-0-0-----0-0-0-----0-0-0------|
-1-1-1------1-1-1-----1-1-1-----0-0-0------|
-0-0-0------0-0-0-----2-2-2-----0-0-0------|
-2-2-2------0-0-0-----2-2-2-----2-2-2------|
-0-0-0------0-0-0-----0-0-0-----2-2-2------|
-3-3-3------3-3-3-----0-0-0-----0-0-0------|


-0-0-0------0-0-0-----0-0-0-----0-0-0------|
-1-1-1------1-1-1-----1-1-1-----0-0-0------|
-0-0-0------0-0-0-----2-2-2-----0-0-0------|
-2-2-2------2-2-2-----2-2-2-----2-2-2------|
-3-3-3------2-2-2-----0-0-0-----2-2-2------|
------------0-0-0-----0-0-0-----0-0-0------|


last chorus

    C            Am
--0-0-0-0------0-0-0-0-----------------------------------|
--1-1-1-1------1-1-1-1-------------3------------3-0------|
--0-0-0-0------2-2-2-2-----------------------------------|
--2-2-2-2------2-2-2-2--------0---------0---0------------|  x2
--3-3-3-3------0-0-0-0------2---2-----2---2--------------|
---------------------------------------------------------|

   C           G            Am          Em
--0-0-0-0----3-3-3-3-----0-0-0-0----0-0-0-0----|
--1-1-1-1----0-0-0-0-----1-1-1-1----0-0-0-0----|
--0-0-0-0----0-0-0-0-----2-2-2-2----0-0-0-0----|
--2-2-2-2----0-0-0-0-----2-2-2-2----2-2-2-2----|
--3-3-3-3----2-2-2-2-----0-0-0-0----2-2-2-2----|
-------------3-3-3-3-----0-0-0-0----0-0-0-0----|

  C           Am           Em
--0-0-0-0----0-0-0-0----0-0-0-0------|
--1-1-1-1----1-1-1-1----0-0-0-0------|
--0-0-0-0----2-2-2-2----0-0-0-0------|
--2-2-2-2----2-2-2-2----2-2-2-2------|
--3-3-3-3----0-0-0-0----2-2-2-2------|
------------------------0-0-0-0------|
Suggest correction
Give kudos to tab author, rate the tab!
1 2 3 4 5
comments
print report bad tab
guest
You may want to rate the tab now too:
select rating
Wanna post a correction for this tab? Suggest correction