Oops, an error
Loading. Please wait.

My Mirror Speaks Tab

version 1
version 1

Whole song

14,946 views 6 this week
no commentswrite comment
1 2 3 4 5
accurate
x 6
add to favorites
launch autoscroll
font size
0
reset
how to read this tab
guitar tuner
Autoscroll
slow
fast
+/-
esc
set tempo
stop
Help us to improve Ultimate-Guitar.com Take our survey!
×
Artist: Death Cab for Cutie
Song: My Mirror Speaks
Album: The Open Door EP

The strumming on this song is approximate, so listen to the song to get the rhythm down. Enjoy!

Intro/Verse (0:00-0:45)
E---------------------------------------0------|
B-----5-----5-----------------------0---0------|
G---6-----6--------------4-----2-2----1-1-4-4--|
D---6-----6--------2-4-6---6/4-2-2------2-4-4--|
A-4-4---4-4------2-------------0-0--------2-2--|
E--------------0-------------------------------|


Chorus (0:45-1:02)
E-0-0-0-0-0-0-0-0-0-0-0-0-0-0-0-0-0-0-0-0-0-0-0-0-------------------------|
B-0-0-0-0-0-0-0-0-0-0-0-0-0-0-0-0-0-0-0-0-0-0-0-0-------------------------|
G-2-2-2-2-1-1-1-1-2-2-2-2-1-1-1-1-2-2-2-2-1-1-1-1-5-5-5-5-6-6-6-6-6-6-6---|
D-2-2-2-2-2-2-2-2-2-2-2-2-2-2-2-2-2-2-2-2-2-2-2-2-6-6-6-6-7-7-7-7-7-7-7-9-|
A-0-0-0-0-2-2-2-2-0-0-0-0-2-2-2-2-0-0-0-0-2-2-2-2-6-6-6-6-7-7-7-7-7-7-7-9-|
E---------0-0-0-0---------0-0-0-0---------0-0-0-0-4-4-4-4-5-5-5-5-5-5-5-7-|


Chorus 2 (1:32-1:55)
E-0-0-0-0-0-0-0-0-0-0-0-0-0-0-0-0-0-0-0-0-0-0-0-0--------------------------------------------------|
B-0-0-0-0-0-0-0-0-0-0-0-0-0-0-0-0-0-0-0-0-0-0-0-0--------------------------------------------------|
G-2-2-2-2-1-1-1-1-2-2-2-2-1-1-1-1-2-2-2-2-1-1-1-1-5-5-5-5-6-6-6-6-6-6-5-5-6-6-6-6-1-1-1-1-1-1-1-4-4|
D-2-2-2-2-2-2-2-2-2-2-2-2-2-2-2-2-2-2-2-2-2-2-2-2-6-6-6-6-7-7-7-7-6-6-6-6-7-7-7-7-2-2-2-2-2-2-2-x-x|
A-0-0-0-0-2-2-2-2-0-0-0-0-2-2-2-2-0-0-0-0-2-2-2-2-6-6-6-6-7-7-7-7-4-4-6-6-7-7-7-7-2-2-2-2-2-2-2-2-2|
E---------0-0-0-0---------0-0-0-0---------0-0-0-0-4-4-4-4-5-5-5-5-----4-4-5-5-5-5-0-0-0-0-0-0-0----|

1:55-2:10
E------------------------------------------------------------------------------|
B------------------------------------------------------------------------------|
G-6-6-9-9-9-11-11-11-11-13-13-13-13-14-14-14-14-16--13-13-13-13-10-11-11-------|  x2
D-x-x-x-x-x-x--x--x--x--xx-xx-xx-xx-xx-xx-xx-xx-xx--xx-xx-xx-xx-x--x--x--9-11--|
A-4-4-7-7-7-9--9--9--9--11-11-11-11-12-12-12-12-14--11-11-11-11-9--9--9--x-x---|
E------------------------------------------------------------------------7-9---|

Bridge (2:10-2:25)
E-------------------------|
B-------------------------|
G-4-4-4--4-4-4-4-4-4--4-4-|  x3
D-4-4-4--4-4-4-4-4-4--4-4-|
A-2-2-2--0-0-x-x-x-x--x-x-|
E------------4-4-4-4--2-2-|

E---------------------------------|
B---------------------------------|
G-4-4-4-4-4-4-4-4-4-4-4-4-4-------|
D-4-4-4-4-4-4-4-4-4-4-4-4-4-------|
A-2-2-2-2-2-2-2-2-2-2-2-2-2-------|
E---------------------------------|

2:25-2:40
E-0-----0-----0-----0-----0-----0-----------------|
B-0-----0-----0-----0-----0-----0-----------------|
G-2-----1-----2-----1-----2-----1-----5-----6-----|
D-2-----2-----2-----2-----2-----2-----6-----7-----|
A-0-----2-----0-----2-----0-----2-----6-----7-----|
E-------0-----------0-----------0-----4-----5-----|

Finish with Chorus 2 and you're done! End on E.
Suggest correction
comments
print report bad tab
guest
You may want to rate the tab now too:
select rating
Please do not post tabs as comments. Select "correction" instead!