Oops, an error
Loading. Please wait.

New Year Bass Tab

version 1
version 1

Whole song

Interactive

3,833 views 1 this week
no commentswrite comment
1 2 3 4 5
accurate
x 3
add to favorites
launch autoscroll
font size
0
reset
guitar tuner
Autoscroll
slow
fast
+/-
esc
set tempo
stop
Help us to improve Ultimate-Guitar.com Take our survey!
×
Author
Difficulty
novice
Band: Death Cab For Cutie
Song: The New Year
Album: Transatlanticism
Tabbed by: choke383
Normal Tuning: GDAE


0:17
G|---------------8-----|
D|----------8------10--|
A|--6----10------------|
E|8--------------------|x4


0:47
G|------------------------------|
D|------------------------------|
A|6-6---------------------------|
E|---------------8-8------------|x4


1:19
G|-------------------------6/8-8-8/9-9--|
D|--------------------------------------|
A|--------------------------------------|
E|-4-4-4-4-4-4-4-4-6-6-6-6--------------|

G|----------------------------------|
D|----------------------------------|
A|----------------------------------|
E|-4-4-4-4-4-4-4-4-6-6-6-6-6-6-6-6--|


1:36
G|------------------------------|
D|------------------------------|
A|6-6---------------------------|
E|---------------8-8------------|x4

G|-----------------------|
D|-----------------------|
A|6-6--------------------|
E|-----------------------|


2:26
G|-------------------------6/8-8-8/9-9--|
D|--------------------------------------|
A|--------------------------------------|
E|-4-4-4-4-4-4-4-4-6-6-6-6--------------|x3

G|----------------------------------|
D|----------------------------------|
A|----------------------------------|
E|-4-4-4-4-4-4-4-4-6-6-6-6-6-6-6-6--|

G|-------------------------6/8-8-8/9-9--|
D|--------------------------------------|
A|--------------------------------------|
E|-4-4-4-4-4-4-4-4-6-6-6-6--------------|

G|----------------------------------|
D|----------------------------------|
A|----------------------------------|
E|-4-4-4-4-4-4-4-4-6-6-6-6-6-6-6-6--|


3:14
G|--------------------|
D|--------------------|
A|6-6-----------------|
E|---------------8-8--|x4

G|------|
D|------|
A|------|
E|-6~---|




Any comments, questions or jokes send to style444@hotmail.com
Suggest correction
Give kudos to tab author, rate the tab!
1 2 3 4 5
comments
print report bad tab
guest
You may want to rate the tab now too:
select rating
Wanna post a correction for this tab? Suggest correction