Oops, an error
Loading. Please wait.

New Year Live Bass Tab

555 views 1 this week
no commentswrite comment
1 2 3 4 5
please rate
add to favorites
launch autoscroll
font size
0
reset
guitar tuner
Tab Pro tools
  • play this tab
  • loop segment
  • change instrument
  • show fretboard
  • metronome
Autoscroll
slow
fast
+/-
esc
set tempo
stop
Contributor
-------------------------------------------------------------------------------
	        The New Year (Live on Kilborn) - Death Cab for Cutie
-------------------------------------------------------------------------------

Tabbed By :ivorylineslead
e-mail: ngarrett2@houston.rr.com

I tabbed this song by watching the live video on Kilborn. Nick H. played a much
different bass line for the live performance.  It was kinda tough trying to hear
and follow what he played so make sure u look at the song order to figure it out.
Any corrections with the song that you may have just email me and I will take a
look at them. Enjoy!

Tuning: Standard

Intro:
G|-----------------------------------------------------------------------------------|
D|-----------------------------------------------------------------------------------|
A|-----5-5---5/9/12--------2-2-------------------------------------------------------|
E|-----------------------------------------------------------------------------------|


Chorus:

G|---------------------------------------------------------------------------------|
D|---------------------------------------------------------------------------------|
A|-----5-5--------2-2--------------------------------------------------------------|
E|---------------------------------------------------------------------------------|


(....in the distance) Interlude?:

G|-------------------------------------------------------------------------------------|
D|--------0-------0-------0-------0----------------------------------------------------|
A|-------------------------------------------------------------------------------------|
E|---3-3-----3-3-----3-3-----3-3-------------------------------------------------------|

G|-----------------------------------------|
D|--------7-------7---7/-11-11--11h-12-12--|
A|---0-0-----0-0---------------------------|
E|-----------------------------------------|

G|----------------------------------|
D|---0-0-9---0-0-9---0-0-9---0-0-9--|
A|----------------------------------|
E|----------------------------------|

G|-----------------------------------------|
D|---0-0-7---7-4--7/---16-16-16/-14-14-14--|
A|-----------------------------------------|
E|-----------------------------------------|

Verse pt.A:

G|----------------------------------------------------------------|
D|-------0------0-------------7-4---7-77-7-7-7/-11-11--11h-12-12--|
A|--------------------9-7-----------------------------------------|
E|--3-3----3-3-----0-------0--------------------------------------|


Verse pt.B:

G|------------------------------------------------------------------------------------|
D|-------0------0------0------0-------------------------------------------------------|
A|------------------------------------------------------------------------------------|
E|--3-3----3-3----3-3----3-3----------------------------------------------------------|

G|---------------------------------------------------------------------------------|
D|-------7------7---7/-11-11--11h-12-12--------------------------------------------|
A|--0-0----0-0---------------------------------------------------------------------|
E|---------------------------------------------------------------------------------|


Verse pt.C:

G|---------------------------------------------------------------------------------------|
D|-------0------0------0-----0-----------------------------------------------------------|
A|---------------------------------------------------------------------------------------|
E|--3-3----3-3----3-3----3-3-------------------------------------------------------------|

G|--------------------------------------------|
D|------0-0-7---7-4--7/---16-16-16/-14-14-14--|
A|--------------------------------------------|
E|--------------------------------------------|

End:

D|---7---|

-------------------------------|

Song Order:

  Intro x4 (:35)

  Chorus x4 (1:04)

 (...in the distance) Interlude? x1 (1:33)

  Chorus x4 (1:48)

  Verse pt.A x1 (2:36)

  Verse pt.B x2 (2:44)

  Verse pt.C x1 (2:58)

  Verse pt.B x1 (3:05)

  Verse pt.C x1 (3:13)

  Chorus x4 (3:20)

  End x1 (3:49)

--------------------------------|


| /  slide up
| \  slide down
| h  hammer-on
| p  pull-off
| ~  vibrato
| +  harmonic
| x  Mute note
===============================================================================
comments
We did not receive enough feedback on this tab! Please rate:
print report bad tab
1 2 3 4 5
I want to post or [tab]
guest
You may want to rate the tab now too:
select rating
Please do not post tabs as comments. Select "correction" instead!