Oops, an error
Loading. Please wait.

No Room In Frame tab

version 2
version 2

Whole song

  • This tab is more organized, more accurate and easi... Show more
55 views 1 this week
no commentswrite comment
1 2 3 4 5
3 more votes to show rating
add to favorites
×
Save as Personal and add changes to this tab that will be seen only by you. Learn more ›
×
You can save this tab as Personal to edit and correct it or add notes. All changes will be seen only by you. Learn more »
launch autoscroll
font size
0
reset
how to read this tab
guitar tuner
edit
Autoscroll
slow
fast
+/-
esc
set tempo
stop
Author
Difficulty
About this tab version
This tab is more organized, more accurate and easier to understand than the other available tabs of this song. https://www.youtube.com/watch?v=uxTH8GZ4PC4 here is the link to play along with if you'd like. The guitar 2 in the second and third chorus is eighth note triplets, and each note is one measure. Was this info helpful? Yes No
Artist: Death Cab For Cutie
Song: No Room In Frame
Album: Kintsugi (2015)
Tabbed By: sgolds88


Guiar 1: Chris Walla/Dave Depper
Guitar 2: Ben Gibbard

This should be correct, or at least it sounds good

[Intro]
No Guitar

[Verse] (comes in at 0:25)
Guitar 1
E|------------------|
B|------------------|
G|------------------|
D|----12------------|
A|---------12-------|
E|-12----7----12-12-| x3
(These notes are harmonics)

[Chorus]
Guitar 1
E|----------------------|
B|----12----------------|
G|-------9----13--------|
D|---------11----11-(9)-|
A|-11-------------------|
E|----------------------| x2

[Post Chorus]
Guitar 2 (Delay and Reverb)
E|-------------------------------|
B|-------------------------------|
G|-18-18-18/20\13---14-13-11-9\6-|
D|-------------------------------|
A|-16-16-16/18\11---12-11-9--7\4-|
E|-------------------------------|

E|-----------------------------------|
B|-----------------------------------|
G|-18-18-18/20\13---14-13-11-9\6-6/9-|
D|-----------------------------------|
A|-16-16-16/18\11---12-11-9--7\4-4/7-|
E|-----------------------------------|

[Verse]
Guitar 1
E|------------------|
B|------------------|
G|------------------|
D|----12------------|
A|---------12-------|
E|-12----7----12-12-| x4
(These notes are again harmonics)

[Chorus]
Guitar 1
E|----------------------|
B|----12----------------|
G|-------9----13--------|
D|---------11----11-(9)-|
A|-11-------------------|
E|----------------------| x3

E|-------------------0--|
B|----12-------------0--|
G|-------9----13-----1--|
D|---------11----11--2--|
A|-11----------------2--|
E|-------------------1--| x1

Guitar 2
E|-------------------------------------------------------------------------|
B|-------------------------------------------------------------------------|
G|-------------------------------------------------------------------------|
D|-------------------------------------------------------------------------|
A|-------------------------------------------------------------------------|
E|-4-4-4-4-4-4-4-4-4-4-4-4-5-5-5-5-5-5-5-5-5-5-5-5-0-0-0-0-0-0-0-0-0-0-0-0-| x3

E|-------------------------------------------------------------------------------------------------|
B|-------------------------------------------------------------------------------------------------|
G|-------------------------------------------------------------------------------------------------|
D|-------------------------------------------------------------------------------------------------|
A|-------------------------------------------------------------------------------------------------|
E|-4-4-4-4-4-4-4-4-4-4-4-4-5-5-5-5-5-5-5-5-5-5-5-5-2-2-2-2-2-2-2-2-2-2-2-2-0-0-0-0-0-0-0-0-0-0-0-0-| x1

[Bridge]

Guitar 1
E|-------------------------------------------------------------|
B|-------------------------------------------------------------|
G|-------1----------------1----------------1-------------1-----|
D|---2-----2---2------2-----2---2------2-----2---2---2-----2---|
A|-4---4-----4------2---2-----2------0---0-----0---0---0-----0-|
E|-------------------------------------------------------------|

E|--------------------------------------------------------------------|
B|--------------------------------------------------------------------|
G|-------1----------------1----------------1----------------1-------1-|
D|---2-----2---2------2-----2---2------2-----2---2------2-----2---2-2-|
A|-4---4-----4------2---2-----2-----------------------2---2-----2---2-|
E|-----------------------------------2---2-----2----------------------|

Guitar 2

E|--------------------------------------------------|
E|--------------------------------------------------|
G|--------------------------------------------------|
D|--------------------------------------------------|
A|--------------------------------------------------|
E|--4-----2-----0--------4-----7-----2-----5-----0--|
(I'm not sure if there is guitar 2 in this section but you can play this along with it)

[Solo]
Guitar 1
(comes in at 2:39)
E|-----------------------------------------------------------------------|
B|-------4-------4----------5-------5----------5-------5-------5-------5-|
G|---4-----4---4--------4-----4---4--------4-----4---4-----4-----4---4---|
D|-4---4-----4--------6---6-----6--------7---7-----7-----7---7-----7-----|
A|-----------------------------------------------------------------------|
E|-----------------------------------------------------------------------| x4

Guitar 2 (Delay and Reverb)
(comes in at 2:55)
E|---------------------------------------------------------------------|
B|-------------9\7-9\5--------------------------------12/14\7/9----9-5-|
G|-----8/9------------------------------------8/9----------------------|
D|---6-------9\------------4-2-------6------6-------9\-----------------|
A|---------------------2h4-----2h4/6-----------------------------------|
E|-7-------7------------------------------7-------7--------------------|

[Chorus]
Guitar 1
E|----------------------|
B|----12----------------|
G|-------9----13--------|
D|---------11----11-(9)-|
A|-11-------------------|
E|----------------------| x3

E|-------------------0--|
B|----12-------------0--|
G|-------9----13-----1--|
D|---------11----11--2--|
A|-11----------------2--|
E|-------------------1--| x1

Guitar 2
E|-------------------------------------------------------------------------|
B|-------------------------------------------------------------------------|
G|-------------------------------------------------------------------------|
D|-------------------------------------------------------------------------|
A|-------------------------------------------------------------------------|
E|-4-4-4-4-4-4-4-4-4-4-4-4-5-5-5-5-5-5-5-5-5-5-5-5-0-0-0-0-0-0-0-0-0-0-0-0-| x3


E|-------------------------------------------------------------------------------------------------|
B|-------------------------------------------------------------------------------------------------|
G|-------------------------------------------------------------------------------------------------|
D|-------------------------------------------------------------------------------------------------|
A|-------------------------------------------------------------------------------------------------|
E|-4-4-4-4-4-4-4-4-4-4-4-4-5-5-5-5-5-5-5-5-5-5-5-5-2-2-2-2-2-2-2-2-2-2-2-2-0-0-0-0-0-0-0-0-0-0-0-0-| x1

[Bridge/Outro]
Guitar 1
E|-------------------------------------------------------------|
B|-------------------------------------------------------------|
G|-------1----------------1----------------1-------------1-----|
D|---2-----2---2------2-----2---2------2-----2---2---2-----2---|
A|-4---4-----4------2---2-----2------0---0-----0---0---0-----0-|
E|-------------------------------------------------------------|

E|--------------------------------------------------------------------|
B|--------------------------------------------------------------------|
G|-------1----------------1----------------1----------------1-------1-|
D|---2-----2---2------2-----2---2------2-----2---2------2-----2---2-2-|
A|-4---4-----4------2---2-----2-----------------------2---2-----2---2-|
E|-----------------------------------2---2-----2----------------------|

Guitar 2
E|---------------------------------------------------------------------|
B|---------------------------------------------------------------------|
G|---------------------------------------------------------------------|
D|---------------------------------------------------------------------|
A|---------------------------------------------------------------------|
E|-4-4-4-4-4-4-4-4-4-4-4-4-2-2-2-2-2-2-2-2-2-2-0-0-0-0-0-0-0-0-0-0-0-0-|

E|---------------------------------------------------|
B|---------------------------------------------------|
G|---------------------------------------------------|
D|---------------------------------------------------|
A|---------------------------------------------------|
E|-4-4-4-4-4-4-4-4-4-4-4-4-7-7-7-7-7-7-7-7-7-7-7-7-2-|



************************************

| (n)  Ghost note
| /    Slide up
| \    Slide down
| h    Hammer-on

************************************

            
            
Suggest correction
Creating personal tab
Creating personal tab
You can edit any tab online and save it as your Personal.

You can edit, replace or remove any tab part or add personal notes – all changes will be seen only by you.

Personal tabs can be accessed anytime from any device, even offline.
Learn more »
Give kudos to tab author, rate the tab!
1 2 3 4 5
comments
print report bad tab
guest
You may want to rate the tab now too:
select rating
Wanna post a correction for this tab? Suggest correction