Oops, an error
Loading. Please wait.

No Sunlight Bass Tab

9,070 views 3 this week
2 commentsread comments
1 2 3 4 5
excellent!
x 3
add to favorites
launch autoscroll
font size
0
reset
guitar tuner
Autoscroll
slow
fast
+/-
esc
set tempo
stop
Help us to improve Ultimate-Guitar.com Take our survey!
×
Author
Tabbed by Sebastian Rivera (the_inerciatic_process_@hotmail.com)

h = Hammer On
/ = Slide In
\ = Slide Out
~ = Let Ring
Intro

G|-----------------6-----------------------------|
D|---------------------6h7-----------------------|
A|-0---0-0---0---0---0-------0---0-0---0---0-0---|
E|-----------------------------------------------|

G|-----------------6-------------------------6-------|
D|---------------------6h7----------------------6h7--|
A|-0---0-0---0---0---0-------0---0-0---0---0---0-----|
E|---------------------------------------------------|

G|---------------------------------|
D|-------------9---------------7---|
A|-7-7-7-7-7-7---7-5-5-5-5-5-5-----|
E|---------------------------------|

Verse 00:16 (2 Times)

G|-----------------6-------------------------6-6-7/9--|
D|---------------------6h7----------------------------|
A|-0---0-0---0---0---0-------0---0-0---0---0----------|
E|----------------------------------------------------|

G|-----------------6-------------------------6-6------|
D|---------------------6h7-----------------------9\7--|
A|-0---0-0---0---0---0-------0---0-0---0---0----------|
E|----------------------------------------------------|

G|----------------------------------|
D|-------------9---------------7----|
A|-7-7-7-7-7-7---7-5-5-5-5-5-5---5--|
E|----------------------------------|

Chorus 00:47

G|-----------------6---------|
D|---------------------6h7---|
A|-0---0-0---0---0---0-------|
E|---------------------------|

G|----------------------------------|
D|-------------9---------------7----|
A|-7-7-7-7-7-7---7-5-5-5-5-5-5---5--|
E|----------------------------------|

G|-----------------6---------|
D|---------------------6h7---|
A|-0---0-0---0---0---0-------|
E|---------------------------|

Verse 2 00:56 

G|-----------------6-------------------------6-6-7/9--|
D|---------------------6h7----------------------------|
A|-0---0-0---0---0---0-------0---0-0---0---0----------|
E|----------------------------------------------------|

G|-----------------6-------------------------6-6------|
D|---------------------6h7-----------------------9\7--|
A|-0---0-0---0---0---0-------0---0-0---0---0----------|
E|----------------------------------------------------|

G|----------------------------------|
D|-------------9---------------7----|
A|-7-7-7-7-7-7---7-5-5-5-5-5-5---5--|
E|----------------------------------|

Chorus 2 01:12

G|-----------------6---------|
D|---------------------6h7---|
A|-0---0-0---0---0---0-------|
E|---------------------------|

G|----------------------------------|
D|-------------9---------------7----|
A|-7-7-7-7-7-7---7-5-5-5-5-5-5---5--|
E|----------------------------------|

G|-----------------6---------|
D|---------------------6h7---|
A|-0---0-0---0---0---0-------|
E|---------------------------|

Bridge 01:21

G|---------------------------------------------------------|
D|---------------------------------------------------------|
A|-2--2--2--2--/7--7--5-5-4-4--2--2--2--2--/7--7--5-5-4-4--|
E|---------------------------------------------------------|


G|------------------------|
D|------------------------|
A|-2--2--2--2--/7---------|
E|----------------0~------|

Chorus 3 01:31 (2 times)

G|-----------------6---------|
D|---------------------6h7---|
A|-0---0-0---0---0---0-------|
E|---------------------------|

G|----------------------------------|
D|-------------9---------------7----|
A|-7-7-7-7-7-7---7-5-5-5-5-5-5---5--|
E|----------------------------------|

G|-----------------6---------|
D|---------------------6h7---|
A|-0---0-0---0---0---0-------|
E|---------------------------|

Bridge 2 01:46

G|---------------------------------------------------------|
D|---------------------------------------------------------|
A|-2--2--2--2--/7--7--5-5-4-4--2--2--2--2--/7--7--5-5-4-4--|
E|---------------------------------------------------------|


G|------------------------|
D|------------------------|
A|-2--2--2--2--/7---------|
E|----------------0~------|

Interlude 01:56

G|--------------------------------|
D|--------------------------------|
A|-0~--------------0~-------------|
E|--------------------------------|

G|-----------------9/14~----------|
D|--------------------------------|
A|-0~-----------------------------|
E|--------------------------------|

Last Chorus 02:08

G|--------------------------------------------------------------|
D|-------------9---------------7--------------------------------|
A|-7-7-7-7-7-7---7-5-5-5-5-5-5---5--0~---0-0---0--0~---0-0---0--|
E|--------------------------------------------------------------|

G|--------------------------------------------------------------|
D|-------------9---------------7--------------------------------|
A|-7-7-7-7-7-7---7-5-5-5-5-5-5---5--0~---0-0---0--0~---0-0---0--|
E|--------------------------------------------------------------|

G|--------------------------------------------------------------|
D|-------------9---------------7--------------------------------|
A|-7-7-7-7-7-7---7-5-5-5-5-5-5---5--0~---0-0---0----------------|
E|------------------------------------------------2----2-2---2--|

G|------------------------|
D|------------------------|
A|-2--2--2--2--/7---------|
E|----------------0~------|

Suggest correction
Give kudos to tab author, rate the tab!
1 2 3 4 5
comments
print report bad tab
2 comments total.
0 reply
chrisjenks 2,712 wrote on July 4 2008, 07:00 am

pretty much bang on. good job. actually he might finish on the a-7~- not the octave lower, but i'm not sure

0 reply
anameofsomesort 41 wrote on January 22 2012, 08:16 pm

good job mate, just checked this with how i play ive just learnt it and it seems right. only thing is for the interlude i hear this

G|-9~--------------9~-------------|
D|-7~--------------7~-------------|
A|--------------------------------|
E|--------------------------------|

G|-9~--------------9/14-14-14-14--|
D|-7~--------------7/14-14-14-14--| and a few more 14's
A|--------------------------------|
E|--------------------------------|

You were pretty much right as you tabbed the root of those chords but if you listen this is what he plays

guest
You may want to rate the tab now too:
select rating
Please do not post tabs as comments. Select "correction" instead!