Oops, an error
Loading. Please wait.

Pity And Fear Tab

version 1
version 1

Whole song

Interactive

5,738 views 3 this week
1 commentread comment
1 2 3 4 5
excellent!
x 4
add to favorites
launch autoscroll
font size
0
reset
how to read this tab
guitar tuner
Tab Pro tools
  • play this tab
  • loop segment
  • change instrument
  • show fretboard
  • metronome
×
Best way to learn
"Pity And Fear"
Autoscroll
slow
fast
+/-
esc
set tempo
stop
Contributor
Difficulty
-----------------------------------------------------------------------------
                      Pity and Fear - Death Cab for Cutie
-----------------------------------------------------------------------------
Tabbed by: Sanjeev Mishra
Email: sanjeev.mishra94@gmail.com

Tuning: Standard

Intro/Verse
e|--------------------------------------------------------------------------|
B|--------------------------------------------------------------------------|
G|----------------------------------5---------------------------------------|
D|---1-3-5-3-5-3-5------1-3-5-3-5-3-----------------------------------------|
A|-3---------------3--3---------------3-------------------------------------|
E|--------------------------------------------------------------------------|
-----------------------------------------------------------------------------

Chorus
e|--------------------------------------------------------------------------|
B|------------------9-8-10--------------------------------------------------|
G|-9-9-7---4------9--------7-9----------------------------------------------|
D|-------7---3-5------------------------------------------------------------|
A|--------------------------------------------------------------------------|
E|--------------------------------------------------------------------------|
-----------------------------------------------------------------------------

2nd Chorus (Guitar 1) and End of First Chorus
e|-0-00-00------------------------------------------------------------------|
B|-1-11-11------------------------------------------------------------------|
G|-0-00-00------------------------------------------------------------------|
D|-2-22-22------------------------------------------------------------------|
A|-3-33-33------------------------------------------------------------------|
E|--------------------------------------------------------------------------|
-----------------------------------------------------------------------------

2nd Chorus (Guitar 2)
e|--------------------------------------------------------------------------|
B|-(------------------9-8-10-----)-----9-8----------------------------------|
G|-(-9-9-7---4------9--------7-9-)-x2------10-9-----------------------------|
D|-(-------7---3-5---------------)------------------------------------------|
A|--------------------------------------------------------------------------|
E|--------------------------------------------------------------------------|
-----------------------------------------------------------------------------

Outro
e|--------------------------------------------------------------------------|
B|--------------------------------------------------------------------------|
G|-13-12-10-9--12-14-7-9--13-15-10-9--14-13-10-15---------------------------|
D|--------------------------------------------------------------------------|
A|-11-10-8--7--10-12-5-7--11-13-8--7--12-11-8--13---------------------------|
E|--------------------------------------------------------------------------|
-----------------------------------------------------------------------------


e|--------------------------------------------------------------------------|
B|--------------------------------------------------------------------------|
G|-13-10-7-9--14-13-10-15--13-15-10-9--12-14-7-9----------------------------|
D|--------------------------------------------------------------------------|
A|-11-8--5-7--12-11-8--13--11-13-8--7--10-12-5-7----------------------------|
E|--------------------------------------------------------------------------|
-----------------------------------------------------------------------------



| /  slide up
| \  slide down
| h  hammer-on
| p  pull-off
| ~  vibrato
| +  harmonic
| x  Mute note
============================================================================
comments
print report bad tab
1 comment total.
0 reply
packerschris wrote on December 12 2008, 08:25 pm

I'm surprised this wasn't already rated, very accurate tab. 5 stars.

I want to post or [tab]
guest
You may want to rate the tab now too:
select rating
Please do not post tabs as comments. Select "correction" instead!