Oops, an error
Loading. Please wait.

President Of What Tab

version 1
version 1

Intro

Whole song

2,984 views 1 this week
no commentswrite comment
1 2 3 4 5
3 more votes to show rating
add to favorites
launch autoscroll
font size
0
reset
how to read this tab
guitar tuner
Autoscroll
slow
fast
+/-
esc
set tempo
stop
Help us to improve Ultimate-Guitar.com Take our survey!
×
Death Cab For Cutie - President of what?
album- Something About Airplanes

Tuning - Standard
Slight distortion through song, trebel low, knob inbetween 2-5
. - staccato (short)
* - harmonic

Verses
  . . . .
e--------------0------------------------------|
b-8-8-8--5-----0------------------------------|
g-9-9-9--0-----0---------77777777-55555555----|
d-9-9-9--x-----9--(x4)---77777777-55555555----|
a-7-7-7--7-----7---------55555555-33333333----|
E---------------------------------------------|

"something's got to break you down"
              .     .
e-0~-------------------------|
b-0~-----8~---8-----5--------|
g-9~-----9~---9-----0--------|
d-x~-----x~---9-----x--------|
a-7~-----7~---7-----7--------|
E----------------------------|

transition into chorus

e---------------|
b---------------|
g-----0-----0---|
d---4-----5-----|
a-5-----7-------|
E---------------|

Chorus

e-------------------------------|
b-------------------------------|
g-9999---------777777-----------|
d-9999-999999--777777-777777----|
a-7777-999999--555555-777777----|
E------777777---------555555----|

Interlude with guy talking - harmonics
   *   *    *
e---------------|
b---------------|
g-7----9--------|
d-----------9---|
a---------------|
E---------------|
Suggest correction
Give kudos to tab author, rate the tab!
1 2 3 4 5
comments
print report bad tab
guest
You may want to rate the tab now too:
select rating
Wanna post a correction for this tab? Suggest correction