Oops, an error
Loading. Please wait.

Prove My Hypothesis Tab

2,995 views 6 this week
4 commentsread comments
1 2 3 4 5
please rate
add to favorites
launch autoscroll
font size
0
reset
how to read this tab
guitar tuner
Autoscroll
slow
fast
+/-
esc
set tempo
stop
Help us to improve Ultimate-Guitar.com Take our survey!
×
Difficulty
intermediate
Intro -
(Bass) (Last time only)
G|--------------------------------|
D|--------------------------------|
A|---------------------7~~~~~~~---|
E|--------------------------------|

(Guitar) - 1
e|--------------------------------|
B|--------------------------------|
G|----4-----4-----4----1----------|
D|----6-6-6-6-6-6-6--2---1/2------|
A|----0----------------------2----|
E|--------------------------------|

(Guitar) - 2
(Swells)(Whatever)
e|--------------------------------|
B|------~~~~~~~~~~~~--------------|
G|---~~~~~---------~~~~~~---------|
D|--------------------------------|
A|---~~~~~~~~~~~~~~~~~~~~~~~~-----|
E|--------------------------------|

Verse -
(Bass)
G|----------------------------------|
D|----------------------------------|
A|----------------------------------|
E|--0000---000/4/0-5555----55555----|

(Sometimes i throw this in instead)
G|-----------------------------------|
D|-----------------------------------|
A|-----------------------------77/6--|
E|--0000---000/4/0-5555----555-------|

(Guitar) - 1
E A
e|-----------------------------------|
B|-----------------------------------|
G|--1111-xx-1111-xx-6666-xx-6666-xx--|
D|--2222-xx-2222-xx-7777-xx-7777-xx--|
A|--2222-xx-2222-xx-7777-xx-7777-xx--|
E|--0000-xx-0000-xx-5555-xx-5555-xx--|

(Sometimes i throw this in instead)
e|------------------------------------|
B|------------------------------------|
G|--1111-xx-1111-xx-6666-xx-666-99/8--|
D|--2222-xx-2222-xx-7777-xx-777-xx-x--|
A|--2222-xx-2222-xx-7777-xx-777-77/6--|
E|--0000-xx-0000-xx-5555-xx-555-xx----|

(Guitar) - 2
(First time & third time)
e|------------------------------------------------------------------|
B|------------------------------------------------------------------|
G|--13-13-13-13-xx-13-13-13-13-xx-16-16-16-16-xx-18-18-18/16-16-16--|
D|--xxxxxxxxxxxxxxxxxxxxxxxxxxxxxxxxxxxxxxxxxxxxxxxxxxxxxxxxxxxxxx--|
A|--11-11-11-11-xx-11-11-11-11-xx-14-14-14-14-xx-16-16-16/14-14-14--|
E|------------------------------------------------------------------|
(Second time & fourth time)
e|------------------------------------------------------------------|
B|------------------------------------------------------------------|
G|--13-13-13-13-xx-13-13-13-13-xx--16-16-18-16--16-16-18-17---------|
D|--xxxxxxxxxxxxxxxxxxxxxxxxxxxxxxxxxxxxxxxxxxxxxxxxxxxxxxxx--------|
A|--11-11-11-11-xx-11-11-11-11-xx--14-14-16-14--14-14-16-15---------|
E|------------------------------------------------------------------|

Chorus -
(Bass)
G|--------------------------------------|
D|--------------------------------------|
A|------------------7---777--6---666----|
E|--5---555--4--444---------------------|

(Guitar) - 1
A Ab E Eb
e|--------------------------------------|
B|--0~~~~~~--0~~~~~~-0~~~~~~~~0~~~~~~---|
G|--6~~-666x-6~~666x-9~~-999x-9~~-999x--|
D|--7~~-777x-7~~777x-x------------------|
A|--7~~-777x-7~~777x-7~~-777x-6~~-666x--|
E|--5~~-555x-4~~444x-0~~-000x-0~~-000x--|

(Guitar) - 2
(I don't know what he really plays,
just some notes on the bottom strings)
e|--------------------------------------|
B|--------------------------------------|
G|--~----------------9~~-999x-8~~-888x--|
D|--7~~-777x-7~~777x-x---xxxx-----------|
A|--x~~-xxxx-x~~xxxx-7~~-777x-6~~-666x--|
E|--5~~-555x-4~~444x--------------------|



BREAKDOWN L0lZ.

(Bass)
G|------------------------------------------------------|
D|----------------1---2---------------------------------|
A|--4-----------2---2---4/2-----------------7-777-6-666-|
E|----4-0-4-2-4-----------------5-555-4-444-------------|

(Guitar) - 1
(Picks up feedback) A Ab E Eb
e|-------------------------------------------------------------|
B|-------------------------------------------------------------|
G|-----------------------------6666666666666666-999999/8888888-|
D|-----------------------------7777777777777777-xxxxxxxxxxxxxx-|
A|-----------------------------7777777777777777-777777/6666666-|
E|-----------------------------5555555/44444444----------------|

(Guitar) - 2
..... Octave's played vigorously
e|-------------------------------------------------------------|
B|-------------------------------------------------------------|
G|------------------------------16_____/14_____/13____/11____--|
D|------------------------------xxxxxxxxxxxxxxxxxxxxxxxxxxxxx--|
A|------------------------------14_____/12_____/11_____9_____--|
E|-------------------------------------------------------------|
Suggest correction
What's this?
You can suggest a correction to this tab. Community and Mods will review your correction and vote to approve or reject it.
comments
We did not receive enough feedback on this tab! Please rate:
print report bad tab
1 2 3 4 5
4 comments total. Showing first comments.
+1 reply
saved by music 84 wrote on February 28 2007, 09:47 pm

dude!! thank you! this is my favorite death cab song! your the only person on the internet who has it! nice tab, man.

+1 reply
JohnnyRockets 12 wrote on June 14 2008, 01:42 pm

Only thing that needs to be added.
That really brilliant chord he plays at the beginning is:
077604

BOMB tab otherwise. i officially love you.

+1 reply
church773 671 wrote on January 21 2009, 09:55 am

Pretty good, but i think the verse goes:


e------------------------------------------7-8-9--|
B--9-9-9-9-x-x-9-9-9-9-x-x-9-9-9-9-x-x-9-x-9-9-9--|
G--9-9-9-9-x-x-9-9-9-9-x-x-9-9-9-9-x-x-9-x-9-9-9--|
D--9-9-9-9-x-x-9-9-9-9-x-x-9-9-9-9-x-x-9-x-9-9-9--|
A--7-7-7-7-x-x-7-7-7-7-x-x-0-0-0-0-x-x-0-x-0-0-0--|
E--0-0-0-0-x-x-0-0-0-0-x-x---------x-x---x--------|

That sounds right to me but it doesn't really matter, it's kinda subtle. Good tab anyways, I was having trouble figuring out the intro.

guest
You may want to rate the tab now too:
select rating
Please do not post tabs as comments. Select "correction" instead!