Oops, an error
Loading. Please wait.

Scientist Studies Bass Tab

1,394 views 1 this week
1 commentread comment
1 2 3 4 5
please rate
add to favorites
launch autoscroll
font size
0
reset
guitar tuner
Autoscroll
slow
fast
+/-
esc
set tempo
stop
Help us to improve Ultimate-Guitar.com Take our survey!
×
Scientist Studies (bass)
Death Cab For Cutie

Verse part A (0:52)

G----------------11---------11-------|
D------------------------------------|
A---------11-14------11-14-----------|
E------------------------------------| x2

Verse part B

G--16------------------------------------------------|
D-----1818181818-1616-----11/1414141414-1313--9------|
A----------------------------------------------------|
E----------------------------------------------------|

Verse A
Verse B
Verse A

Chorus ("Promises...")

G--------------------66------------|
D-----------------66----66---------|
A----77777777-44-------------------|
E----------------------------------|

G----------------11---------11-------|
D------------------------------------|
A---------11-14------11-14-----------|
E------------------------------------| x2

G--------------------66------------|
D-----------------66----66---------|
A----77777777-44-------------------|
E----------------------------------|

Chorus End ("Your First Defense....")

G---------------------------------|
D--------------4-6--9-------------|
A---------7-----------------------|
E----444--------------------------|

Keep Repeating:
Verse B
Verse A
until...
Chorus (2:58)

Chorus End (3:16) x4

Outro Part 1 (3:47), (3:53), (3:59)

G---------------------------------|
D---------------------------------|
A--------7h6----------------------|
E----0h4--------------------------|

Outro Part 2 (4:04)

G-----------------------------------|
D-----------------------------------|
A--------7h6--------4444-6666-------|
E----0h4----------------------------|

Outro Part 3 (4:09)
G--------------------------------------------|
D--------------------------------------------|
A--------7h6----99-77-1111-9-11-141414-------|
E----0h4-------------------------------------|

G---------------------------------------|
D---------------------------------------|
A--------7h6----99-77--4444-6666--------|
E----0h4--------------------------------|

Do this for a while until....

Chorus End ("This is your first defense" @ 5:05)

G---------------------------------|
D--------------4-6--9-------------|
A---------7-----------------------|
E----444--------------------------|

------------Song End-------------

-Nathan
Suggest correction
Give kudos to tab author, rate the tab!
1 2 3 4 5
comments
print report bad tab
1 comment total.
0 reply
stinkfist10 10 wrote on July 13 2010, 05:21 am

great tab everything sounded right except for the part 3 on the outro. i think it might be.....99 79 1111 9 11 141414..but i could be wrong.do you happen to know president of what? or amputations of the something about airplanes album? if you do please tab!!

guest
You may want to rate the tab now too:
select rating
Wanna post a correction for this tab? Suggest correction