Oops, an error
Loading. Please wait.

Soul Meets Body Bass Tab

version 1
version 1

Whole song

Interactive

17,291 views 24 this week
no commentswrite comment
1 2 3 4 5
accurate
x 17
add to favorites
launch autoscroll
font size
0
reset
guitar tuner
Autoscroll
slow
fast
+/-
esc
set tempo
stop
Help us to improve Ultimate-Guitar.com Take our survey!
×
Author
Difficulty
-------------------------------------------------------------------------------
			     Soul Meets Body - Death Cab For Cutie
-------------------------------------------------------------------------------

Tabbed By : Nightmare_xxx
e-mail: ali.johnstone@mac.com

Tuning: Standard

I'm pretty sure this is 100% right, I only tabbed it because the other one as abysmally wrong.

Intro
G|------------------------------------|
D|------------------------------------|
A|-555-555-333-33--555-555-333-33-----|
E|------------------------------------|

Rest

Verse (0:43)
G|---------------------------------------------|
D|---------------------------------------------|
A|-3-/-5-5-5-5-5-5-5-5---8-8-8-8-8-8-8-8-------| x3
E|---------------------------------------------|

G|--------------------|
D|--------------------|
A|-3-3-3-3-3-3-3-3----|
E|--------------------|

Rest

Verse (1:29)
G|-------------------------------------------------------------------------------|
D|----------------7----------1010-88-7----------------7----------1010-101010-----|
A|-5-5-5-5-5-5-5----8-8-8-8------------5-5-5-5-5-5-5----8-8-8-8------------------|
E|-------------------------------------------------------------------------------|

G|---------------------------------------------------------------------------|
D|----------------7---------------------------------7---------1010-101010----|
A|-5-5-5-5-5-5-5----8-8-8-8-8-8-8-8-5-5-5-5-5-5-5----8-8-8-8-----------------|
E|---------------------------------------------------------------------------|

G|------------------------------------------------------|
D|---------------7--------------------------------------|
A|-5-5-5-5-5-5-5---8-8-8-8-8-8-8-8--3-3-3-3-3-3-3-3-----|
E|------------------------------------------------------|

Chorus (2:10)

G|---------------------------------------------------------------|
D|---------------------------------------------------------------|
A|--5~----------5~-----------5~--1~--3~--55-00-11-33333333-------| x2
E|------1~--3~------1~--3~---------------------------------------|


Bridge (2:40)
G|---------------------------------------|
D|---------------------------------------|
A|-55555-5555---88-----55555-5555--------|
E|---------------------------------------|


G|----------------------------------------|
D|----------------------------------------|
A|-55555-5555---883~--3-3-3-3-3-3-3-3-----|
E|----------------------------------------|

Chorus (2:59)

G|----------------------------------------------------------------|
D|----------------------------------------------------------------|
A|--5~----------5~-----------5~--1~--3~--55-00-11-33333333--------| x2
E|------1~--3~------1~--3~----------------------------------------|

| /  slide up
| \  slide down
| h  hammer-on
| p  pull-off
| ~  vibrato
| +  harmonic
| x  Mute note
===============================================================================
Suggest correction
comments
print report bad tab
guest
You may want to rate the tab now too:
select rating
Please do not post tabs as comments. Select "correction" instead!