Oops, an error
Loading. Please wait.

Soul Meets Body Tab

version 1
version 1

Live

Interactive

2,050 views 1 this week
no commentswrite comment
1 2 3 4 5
x 5
add to favorites
launch autoscroll
font size
0
reset
how to read this tab
guitar tuner
Autoscroll
slow
fast
+/-
esc
set tempo
stop
Help us to improve Ultimate-Guitar.com Take our survey!
×
Difficulty
Capo
novice
5th fret
Band : Death Cab For Cutie
Song : Soul Meets Body
Album: Plans
Tabbed By: Derek (derekadams32@gmail.com)
Capo 5th fret (standard tuning)


No Intro, starts right on the first verse.  Listen to the timing (really easy)
to know when to play each chord. Verse 1 :  (there is a G played right at the
end of each verse AKA Pre-Chorus)
  Am  C
e|-0--0--|
B|-1--1--|
G|-2--0--|
D|-2--2--|
A|-0--3--|
E|-------|

Verse 2  :
  Am  C
e|-0--0--|
B|-1--1--|
G|-2--0--|
D|-2--2--|
A|-0--3--|
E|-------|

Pre-Chorus:
   G
e|-3-|
B|-3-|
G|-0-|
D|-0-|
A|-2-|
E|-3-|

Chorus:

   Guitar 1:
e|----------------------------------------------------------------------|
B|----------------------------------------------------------------------|
G|-----0-----0----------------0-----0----------------0------------------|
D|----2-----2----------------2-----2----------------2------0------------|
A|-0-0---3-3---5-5-5-5-5--0-0---3-3---5-5-5-5-5--0-0------3--5-5-5-5-5--|
E|-------------3-3-3-3-3--------------3-3-3-3-3--------1-1---3-3-3-3-3--|


e|----------------------------|
B|----------------------------|
G|----------------------------|
D|-2-2---------0-0-0-0-0-0-0--|
A|-0-0-3-3-3-3-4-4-3-3-3-3-3--|
E|-----0-0-1-1-4-4-4-4-4-4-4--|


Bridge:
  
   Guitar 1:
     Am,                  C,     C*
   e|-0-------------------0------0-----------|
   B|-1-------------------1------3-----------|
   G|-2-------------------0------0-----------|
   D|-2-------------------2------2-----------|
   A|-0-------------------3------3-----------|
   E|----------------------------------------|
    Guitar 2:
     Am,  Am*, Am,  Am*   C,     
   e|-0----0----0----0----0------------------|
   B|-1----1----1----1----1------------------|
   G|-2----2----2----2----0------------------|
   D|-2----0----2----0----2------------------|
   A|-0----0----0----0----3------------------|
   E|----------------------------------------|

Verse 3  :
  Am  C
e|-0--0--|
B|-1--1--|
G|-2--0--|
D|-2--2--|
A|-0--3--|
E|-------|

Pre-Chorus:
   G
e|-3-|
B|-3-|
G|-0-|
D|-0-|
A|-2-|
E|-3-|

Chorus:

  Guitar 1:
e|----------------------------------------------------------------------|
B|----------------------------------------------------------------------|
G|-----0-----0----------------0-----0----------------0------------------|
D|----2-----2----------------2-----2----------------2------0------------|
A|-0-0---3-3---5-5-5-5-5--0-0---3-3---5-5-5-5-5--0-0------3--5-5-5-5-5--|
E|-------------3-3-3-3-3--------------3-3-3-3-3--------1-1---3-3-3-3-3--|


e|----------------------------|
B|----------------------------|
G|----------------------------|
D|-2-2---------0-0-0-0-0-0-0--|
A|-0-0-3-3-3-3-4-4-3-3-3-3-3--|
E|-----0-0-1-1-4-4-4-4-4-4-4--|

   Guitar 2:  play Am, C, and G.

Bridge 2: Am, Palm Mute, Am, G

Chorus 2 more times.

Go to LAUNCH.YAHOO.COM and watch the live music video for help.
Suggest correction
comments
print report bad tab
guest
You may want to rate the tab now too:
select rating
Wanna post a correction for this tab? Suggest correction