Oops, an error
Loading. Please wait.

Soul Meets Body Tab

version 2
version 2

Interactive

7,163 views 3 this week
4 commentsread comments
1 2 3 4 5
accurate
x 3
add to favorites
launch autoscroll
font size
0
reset
how to read this tab
guitar tuner
Autoscroll
slow
fast
+/-
esc
set tempo
stop
Help us to improve Ultimate-Guitar.com Take our survey!
×
Author
-------------------------------------------------------------------------------
                             Soul Meets Body - Death Cab for Cutie
-------------------------------------------------------------------------------
Tabbed by: CJ
Email: rg120ibanez@yahoo.com

Tuning: standard (capo at 5th fret)

Intro:
Guitar 1
e|-7---7---5---5---7---7---5---5---8-10-8-10-8-10-8-10-8-10-8-10-8-10-8-10-| 2x

Intro:
(Guitar 2)
     (8x)      (8x)    2x
e|-----8---------8-----|
B|---10---------8------|
G|-10---------10-------|
D|---------------------|
A|---------------------|
E|---------------------|

(Guitar 3)
Verse: 2x
Strum each chord repeatedly
  (Am)    (C)     (Am)    (C)     (Am)    (C)     (G)     
e|-5-------5-------5-------5-------5-------5-------8-------|
B|-6-------6-------6-------6-------6-------6-------8-------|
G|-7-------5-------7-------5-------7-------5-------5-------|
D|-7-------7-------7-------7-------7-------7-------7-------|
A|-5-------8-------5-------8-------5-------8-------8-------|
E|---------------------------------------------------------|

Chorus:
e|------------------------------------------------|
B|------------------------------------------------|
G|----------5-----------5-------------------------|  (2x)
D|-------7-----------7----------------------------|
A|-5--5--------8--8-------------------------------|
E|-------------------------8--8--8--8--8--8--8--8-|

e|-------------------------------------|
B|-------------------------------------|
G|-----5-------------------------------|
D|---7---------5-----------------------|
A|-5---------8-------------------------|
E|-------5-6-----6-8-8-8-8-8-8-8-8-----|

e|----------------------------------|
B|----------------------------------|
G|----------------------------------|
D|-7-7------------------------------|
A|-5-5-8-8-8-8-8-8-7-7-7-7-7-7-7-7--|
E|-----5-5-6-6-8-8-8-8-8-8-8-8-8-8--|

Am C Am C

Verse (Guitar 3) + Intro (Guitars 1 & 2)

Chorus 2x

Solo:
(Guitar 1 during part of chorus before power chord)
e|--------------------------------------------------------------------|
B|--------6----------8--5---------------6-------5------------6------8-|
G|-----7-----------------------------7--------------------7-----------|
D|--7-----------------------------7--------------------7--------------|
A|--------------------------------------------------------------------|
E|--------------------------------------------------------------------|

Bridge:

Am C Am   (Pause)   Am C G

Chorus 2x (with solo)

Guitar 1:
e|-7---7---5---5---|   10x

Guitar 2:

e|-----8---------8-----|   10x
B|---10---------8------|
G|-10---------10-------|
D|---------------------|
A|---------------------|
E|---------------------|

===============================================================================
Suggest correction
Give kudos to tab author, rate the tab!
1 2 3 4 5
comments
print report bad tab
4 comments total. Showing first comments.
0 reply
af2w131f 10 wrote on November 5 2005, 02:33 pm

Sorry to say you got it wrong. watch some live videos of this song you'll see you got the chrods all wrong.

0 reply
mistaman 295 wrote on January 12 2006, 05:00 pm

tab it all out with relation to capo next time...it makes it a lot simpler to play.

0 reply
CreateSalvation 10 wrote on January 31 2006, 08:42 am

yeah..yours is worse then the other guys, so next time dont say another guys one sucks when yours is worse.

guest
You may want to rate the tab now too:
select rating
Please do not post tabs as comments. Select "correction" instead!