Oops, an error
Loading. Please wait.

Soul Meets Body Tab

version 3
version 3

Interactive

10,637 views 6 this week
6 commentsread comments
1 2 3 4 5
accurate
x 10
add to favorites
launch autoscroll
font size
0
reset
how to read this tab
guitar tuner
Autoscroll
slow
fast
+/-
esc
set tempo
stop
Help us to improve Ultimate-Guitar.com Take our survey!
×
Author
Difficulty
intermediate
Title: Soul meets body
Artist: Death Cab For Cutie
Tabbed by: nal1200
Tuning: Standard

I've listened to this song tons of times to get the chords figured out. I'm almost 100%
(if not absolutly) positive these are correct. It's tabbed out in order as it is heard
in the song.

INTRO X2:

E--12--12--10--10--12--12--10--10--|   -----15-13-15-13-15-13-15-----|
B---0---0---0---0---0---0---0---0--|   --13--------------------------|
G---0---0---0---0---0---0---0---0--|   ------------------------------|
D----------------------------------|X1 ------------------------------|X2
A----------------------------------|   ------------------------------|
e----------------------------------|   ------------------------------|

Verse X2: (straight eighth notes)

E--1---------1----------|  ---3---------|
B--3---------1----------|  ---3---------|
G--2---------2----------|  ---2---------|
D--0-X16-----3-X16------|X6---0-x32-----|
A--0---------0----------|  ---3---------|
e--X---------X----------|  ---0---------|

Chorus X1:

E-------------------------------------|   -------------------------------|
B-------------------------------------|   -------------------------------|
G------0-2-------0-0-2----------------|   ------0-2--------0-------------|
D--0-0-------3-3---------55555555-----|X2 --0-0----------3----55555555---|
A------------------------33333333-----|   -----------1-1------33333333---|
e-------------------------------------|   -------------------------------|

E---------------------------------|
B---------------------------------|
G-22------------------------------|
D-00--33--33--33--22222222--------|
A-----00--11--33--33333333--------|
e---------------------------------|

E--1---------1----------|
B--3---------1----------|
G--2---------2----------|
D--0-X16-----3-X16------|X2
A--0---------0----------|
e--X---------X----------|

Verse X2: (straight eighth notes)

E--1---------1----------|  ---3---------|
B--3---------1----------|  ---3---------|
G--2---------2----------|  ---2---------|
D--0-X16-----3-X16------|X6---0-x32-----|
A--0---------0----------|  ---3---------|
e--X---------X----------|  ---0---------|

Chorus X1:

E-------------------------------------|   -------------------------------|
B-------------------------------------|   -------------------------------|
G------0-2-------0-0-2----------------|   ------0-2--------0-------------|
D--0-0-------3-3---------55555555-----|X2 --0-0----------3----55555555---|
A------------------------33333333-----|   -----------1-1------33333333---|
e-------------------------------------|   -------------------------------|

E---------------------------------|
B---------------------------------|
G-22------------------------------|
D-00--33--33--33--22222222--------|
A-----00--11--33--33333333--------|
e---------------------------------|

Bridge:

  ....  ....
E-1111--1111--11111111----|
B-3333--3333--11111111----|
G-2222--2222--22222222----|
D-0000--0000--33333333----|
A-0000--0000--00000000----|
e-XXXX--XXXX--XXXXXXXX----|

  ....  ....
E-1111--1111-----------|
B-3333--3333-----------|
G-2222--2222-----------|
D-0000--0000----(rest)-|
A-0000--0000-----------|
e-XXXX--XXXX-----------|

  ....  ....
E-1111--1111--3333333333333333-------|
B-3333--3333--3333333333333333-------|
G-2222--2222--2222222222222222-------|
D-0000--0000--0000000000000000-------|
A-0000--0000--3333333333333333-------|
e-XXXX--XXXX--0000000000000000-------|

(Repeat Chorus)

Outro:

E--12--12--10--10--12--12--10--10--|
B---0---0---0---0---0---0---0---0--|
G---0---0---0---0---0---0---0---0--|
D----------------------------------|
A----------------------------------|
e----------------------------------|
Suggest correction
comments
print report bad tab
6 comments total. Showing first comments.
0 reply
thegreatindoors 41 wrote on November 16 2005, 06:00 pm

This is played with a capo on V.

0 reply
nal1200 102 wrote on November 16 2005, 07:48 pm

You can play the chords either way, capo or no capo. However, you'll just be playing the 5th of the non capo chords as the root of the capo chords.

0 reply
texasdeathcab 10 wrote on January 1 2006, 12:58 am

I believe that the lead guitar during the chorus plays as such:

E----------------------------------------------
B-------1-------1------------------------------
G-----2-------2--------------------------------
D-0-0-----3-3---------------------------------- x 2
A-----------------3-3-3-3-3-3-3-3--------------
E----------------------------------------------

then...

E----------------------------------------------
B-----1----------------------------------------
G---2---2-----0--------------------------------
D-0---------3---3------------------------------
A---------1-------3-3-3-3-3-3-3-3--------------
E----------------------------------------------

and...

E----------------------------------------------
B----------------------------------------------
G-55-------------------------------------------
D-33-33-33-33-22222222-------------------------
A----00-11-33-33333333-------------------------
E----------------------------------------------

Like thegreatindoors said, its much easier to play this song with
a capo on 5, provided of course that you have one. If not, this is
how you play it without one.

guest
You may want to rate the tab now too:
select rating
Wanna post a correction for this tab? Suggest correction