Oops, an error
Loading. Please wait.

Soul Meets Body Tab

version 5
version 5

Interactive

31,354 views 27 this week
2 commentsread comments
1 2 3 4 5
excellent!
x 9
add to favorites
launch autoscroll
font size
0
reset
how to read this tab
guitar tuner
Autoscroll
slow
fast
+/-
esc
set tempo
stop
Help us to improve Ultimate-Guitar.com Take our survey!
×
Author
Capo
5th fret
			  Soul Meets Body - Death Cab for Cutie
------------------------------------------------------------------------------------------

Title: Soul Meets Body
Artist: Death Cab for Cutie
Album: Plans

Tabbed by:  Ace

Tuning: Standard, low to high - E A D G B E

Capo on 5...All notes relative to capo...

Intro(not the high part-this is what ben plays while the high part goes on)
    G          G     G      Am
E|--3----------3-----3------0--0--0--0-------------------------------||
B|--3----------3-----3------1--1--1--1-------------------------------||
G|--0----------0-----0------2--2--2--2-------------------------------||
D|--0----------0-----0------2--2--2--2-------------------------------||
A|--2----------2-----2------0--0--0--0-------------------------------||
E|--3----------3-----3------0--0--0--0-------------------------------||



  Verse
    Am            C/G              Am 		 C/G
E|--0--------------0---------------0--------------0------------------||
B|--1--------------1---------------1--------------1------------------||
G|--2-x16----------0-x16-----------2-x16----------0-x16--------------||
D|--2--------------2---------------2--------------2------------------||
A|--0--------------3---------------0--------------3------------------||
E|--0--------------3---------------0--------------3------------------||

    Am		  C/G		   G
E|--0--------------0---------------3---------------------------------||
B|--1--------------1---------------3---------------------------------||
G|--2-x16----------0-x16-----------0-x32-(x16 second time through)---||
D|--2--------------2---------------0---------------------------------||
A|--0--------------3---------------2---------------------------------||
E|--0--------------3---------------3---------------------------------||



  Chorus
E|-------------------------------------------------------------------||
B|-------------------------------------------------------------------||
G|--------0--------0------------------------0-------0----------------||
D|------2--------2------------------------2-------2------------------||
A|--0-0------3-3----------------------0-0-----3-3--------------------||
E|-------------------3-3-3-3-3-3-3-3------------------3-3-3-3-3-3-3-3||

(rhythm changes here so listen for pattern)
E|-------------------------------------------------------------------||
B|-------------------------------------------------------------------||
G|-----0-------------------------------------------------------------||
D|---2---------0---------------------2-2-----------------------------||
A|-0---------3-----------------------0-0-3-3-3-3-3-3-2-2-2-2-2-2-2-2-||
E|-------0-1-----0-3-3-3-3-3-3-3-3-------0-0-1-1-3-3-3-3-3-3-3-3-3-3-||



  Bridge
   Am	       Am	 C/G      Am          Am
E|-0-0-0-0-0---0-0-0-0---0-0-0-0--0-0-0-0-0---0-0-0-0----------------||
B|-1-1-1-1-1---1-1-1-1---1-1-1-1--1-1-1-1-1---1-1-1-1----------------||
G|-2-2-2-2-2---2-2-2-2---0-0-0-0--2-2-2-2-2---2-2-2-2----------------||
D|-2-2-2-2-2---2-2-2-2---2-2-2-2--2-2-2-2-2---2-2-2-2----------------||
A|-0-0-0-0-0---0-0-0-0---3-3-3-3--0-0-0-0-0---0-0-0-0----------------||
E|-0-0-0-0-0---0-0-0-0---3-3-3-3--0-0-0-0-0---0-0-0-0----------------||

   Am	       Am	 C/G       G
E|-0-0-0-0-0---0-0-0-0---0-0-0-0---3---------------------------------||
B|-1-1-1-1-1---1-1-1-1---1-1-1-1---3---------------------------------||
G|-2-2-2-2-2---2-2-2-2---0-0-0-0---0--x32----------------------------||
D|-2-2-2-2-2---2-2-2-2---2-2-2-2---0---------------------------------||
A|-0-0-0-0-0---0-0-0-0---3-3-3-3---2---------------------------------||
E|-0-0-0-0-0---0-0-0-0---3-3-3-3---3---------------------------------||


This is the order it should be played in:

Intro
Verse x2
Chorus
Verse(play 1st half of verse, then start verse again when lyrics come in)
Chorus x2
Bridge
Chorus x2



From watching a bunch of videos of DC4C this is what I got...I'm pretty
sure its right, if you watch Ben play it, this is how he does it...I didnt
try to do the intro because its not a guitar but Ben does faintly play
something during the intro...Soul Meets Body is a great single from one of
my favorite bands
Suggest correction
comments
print report bad tab
2 comments total.
0 reply
AceMoney 370 wrote on January 20 2006, 03:44 pm

for the bridge, the chord names should be moved over, its pretty easy to see that c/g and am are in the wrong places...my bad

0 reply
echo1714 10 wrote on March 16 2006, 11:34 pm

great job only decent tab i have found

guest
You may want to rate the tab now too:
select rating
Wanna post a correction for this tab? Suggest correction