Oops, an error
Loading. Please wait.

Soul Meets Body Tab

version 6
version 6

Interactive

164,557 views 57 this week
26 commentsread comments
1 2 3 4 5
x 67
add to favorites
launch autoscroll
font size
0
reset
how to read this tab
guitar tuner
Autoscroll
slow
fast
+/-
esc
set tempo
stop
Help us to improve Ultimate-Guitar.com Take our survey!
×
Author
Difficulty
Capo
intermediate
5th fret
Title – Soul Meets Body
Artist- Death Cab for Cutie
Album – Plans

Tabbed by: Larry A

Tuning: Standard
Guitar 1 – Acoustic (Capo 5th fret)
Guitar 2 – Keyboard effects (Tabbed for guitar)

[Intro]
(0:00-0:14)

Guitar 2
e| |---------------------------------|---------------------------------|
B| |17--17--15--15--17--17--15--15---|20--20--18--18--20--20--18--18---|
G| |---------------------------------|---------------------------------|
D| |--14--14--12--12--14--14--12--12-|--17--17--15--15--17--17--15--15-|
A| |---------------------------------|---------------------------------|
E| |---------------------------------|---------------------------------|

Guitar 2
e| |---------------------------------|---------------------------------|
B| |17--17--15--15--17--17--15--15---|20--20--18--18--20--20--18--18---|
G| |---------------------------------|---------------------------------|
D| |--14--14--12--12--14--14--12--12-|--17--17--15--15--17--17--15--15-|
A| |---------------------------------|---------------------------------|
E| |---------------------------------|---------------------------------|
                                                                       |
Guitar 1                                                               |
e| |-x-x-x-x-x-x-x-x-x-x-x-x-x-x-x-x-|-x-x-x-x-x-x-x-x-x-x-x-x-x-x-x-x-|
B| |-x-x-x-x-x-x-x-x-x-x-x-x-x-x-x-x-|-x-x-x-x-x-x-x-x-x-x-x-x-x-x-x-x-|
G| |-x-x-x-x-x-x-x-x-x-x-x-x-x-x-x-x-|-x-x-x-x-x-x-x-x-x-x-x-x-x-x-x-x-|
D| |-x-x-x-x-x-x-x-x-x-x-x-x-x-x-x-x-|-x-x-x-x-x-x-x-x-x-x-x-x-x-x-x-x-|
A| |-x-x-x-x-x-x-x-x-x-x-x-x-x-x-x-x-|-x-x-x-x-x-x-x-x-x-x-x-x-x-x-x-x-|
E| |-x-x-x-x-x-x-x-x-x-x-x-x-x-x-x-x-|-x-x-x-x-x-x-x-x-x-x-x-x-x-x-x-x-|

[Verse]
(0:15-1:07)

Guitar 1
e| |-0-0-0-0-0-0-0-0-0-0-0-0-0-0-0-0-|-0-0-0-0-0-0-0-0-0-0-0-0-0-0-0-0-|
B| |o1-1-1-1-1-1-1-1-1-1-1-1-1-1-1-1-|-1-1-1-1-1-1-1-1-1-1-1-1-1-1-1-1o|
G| |-2-2-2-2-2-2-2-2-2-2-2-2-2-2-2-2-|-0-0-0-0-0-0-0-0-0-0-0-0-0-0-0-0-|
D| |-2-2-2-2-2-2-2-2-2-2-2-2-2-2-2-2-|-2-2-2-2-2-2-2-2-2-2-2-2-2-2-2-2-|
A| |o0-0-0-0-0-0-0-0-0-0-0-0-0-0-0-0-|-3-3-3-3-3-3-3-3-3-3-3-3-3-3-3-3o|
E| |-x-x-x-x-x-x-x-x-x-x-x-x-x-x-x-x-|-x-x-x-x-x-x-x-x-x-x-x-x-x-x-x-x-|
  1.       I want to live      Where   soul meets body
  2.       And let the sun  Wrap its   arms around me              And
  3.       Bathe my skin    In water   cool and cleansing          And

Guitar 1
e| |-x-x-x-x-x-x-x-x-x-x-x-x-x-x-x-x-|-x-x-x-x-x-x-x-x-x-x-x-x-x-x-x-x-|
B| |-3-3-3-3-3-3-3-3-3-3-3-3-3-3-3-3-|-3-3-3-3-3-3-3-3-3-3-3-3-3-3-3-3-|
G| |-0-0-0-0-0-0-0-0-0-0-0-0-0-0-0-0-|-0-0-0-0-0-0-0-0-0-0-0-0-0-0-0-0-|
D| |-0-0-0-0-0-0-0-0-0-0-0-0-0-0-0-0-|-0-0-0-0-0-0-0-0-0-0-0-0-0-0-0-0-|
A| |-2-2-2-2-2-2-2-2-2-2-2-2-2-2-2-2-|-2-2-2-2-2-2-2-2-2-2-2-2-2-2-2-2-|
E| |-3-3-3-3-3-3-3-3-3-3-3-3-3-3-3-3-|-3-3-3-3-3-3-3-3-3-3-3-3-3-3-3-3-|
     Feel...                           feel what it's like to be new   |
                                                                       |
Guitar 2                                                               |
e| |---------------------------------|---------------------------------|
B| |17--17--15--15--17--17--15--15---|17--17--15--15--17--17--15--15---|
G| |---------------------------------|---------------------------------|
D| |--14--14--12--12--14--14--12--12-|--14--14--12--12--14--14--12--12-|
A| |---------------------------------|---------------------------------|
E| |---------------------------------|---------------------------------|

Guitar 1
e| |-0-0-0-0-0-0-0-0-0-0-0-0-0-0-0-0-|-0-0-0-0-0-0-0-0-0-0-0-0-0-0-0-0-|
B| |o1-1-1-1-1-1-1-1-1-1-1-1-1-1-1-1-|-1-1-1-1-1-1-1-1-1-1-1-1-1-1-1-1o|
G| |-2-2-2-2-2-2-2-2-2-2-2-2-2-2-2-2-|-0-0-0-0-0-0-0-0-0-0-0-0-0-0-0-0-|
D| |-2-2-2-2-2-2-2-2-2-2-2-2-2-2-2-2-|-2-2-2-2-2-2-2-2-2-2-2-2-2-2-2-2-|
A| |o0-0-0-0-0-0-0-0-0-0-0-0-0-0-0-0-|-3-3-3-3-3-3-3-3-3-3-3-3-3-3-3-3o|
E| |-x-x-x-x-x-x-x-x-x-x-x-x-x-x-x-x-|-x-x-x-x-x-x-x-x-x-x-x-x-x-x-x-x-|
  1.       'Cause in my head There's   a Greyhound station             |
  2.       Where I send my thoughts to far-off destinations         So |
  3. They may have a chance       of   finding a place where they're   |
                                                                       |
Guitar 2                                                               |
e| |---------------------------------|---------------------------------|
B| |17--17--15--15--17--17--15--15---|20--20--18--18--20--20--18--18--o|
G| |---------------------------------|---------------------------------|
D| |--14--14--12--12--14--14--12--12-|--17--17--15--15--17--17--15--15-|
A| |o--------------------------------|--------------------------------o|
E| |---------------------------------|---------------------------------|

[Pre-Chorus] 
(1:08-1:10)

Guitar 1
e| |-x-x-x-x-x-x-x-x-x-x-x-x-x-x-x-x-|
B| |-3-3-3-3-3-3-3-3-3-3-3-3-3-3-3-3-|
G| |-0-0-0-0-0-0-0-0-0-0-0-0-0-0-0-0-|
D| |-0-0-0-0-0-0-0-0-0-0-0-0-0-0-0-0-|
A| |-2-2-2-2-2-2-2-2-2-2-2-2-2-2-2-2-|
E| |-3-3-3-3-3-3-3-3-3-3-3-3-3-3-3-3-|
     Far more suited then here       |
                                     |
Guitar 2                             |
e| |---------------------------------|
B| |20--20--18--18--20--20--18--18---|
G| |---------------------------------|
D| |--17--17--15--15--17--17--15--15-|
A| |---------------------------------|
E| |---------------------------------|

[Chorus] 
(1:11-1:26)

Guitar 1
e| |---------------------------------|---------------------------------|
B| |---------------------------------|---------------------------------|
G| |-------0-------0-----------------|-------0-------0-----------------|
D| |-----2-------2-------------------|-----2-------2-------------------|
A| |-0-0-----3-3---------------------|-0-0-----3-3---------------------|
E| |-----------------3-3-3-3-3-3-3-3-|-----------------3-3-3-3-3-3-3-3-|

Guitar 1
e| |---------------------------------|---------------------------------|
B| |---------------------------------|---------------------------------|
G| |-----0---------------------------|---------------------------------|
D| |---2---------0-------------------|-2-2-------------0-0-0-0-0-0-0-0-|
A| |-0---------3---------------------|-0-0-3-3-3-3-3-3-2-2-2-2-2-2-2-2-|
E| |-------0-1-----0-3-3-3-3-3-3-3-3-|-0-0-0-0-1-1-3-3-3-3-3-3-3-3-3-3-|

[Interlude]
(1:26-1:40)

Guitar 1
e| |-0-0-0-0-0-0-0-0-0-0-0-0-0-0-0-0-|-0-0-0-0-0-0-0-0-0-0-0-0-0-0-0-0-|
B| |o1-1-1-1-1-1-1-1-1-1-1-1-1-1-1-1-|-1-1-1-1-1-1-1-1-1-1-1-1-1-1-1-1o|
G| |-2-2-2-2-2-2-2-2-2-2-2-2-2-2-2-2-|-0-0-0-0-0-0-0-0-0-0-0-0-0-0-0-0-|
D| |-2-2-2-2-2-2-2-2-2-2-2-2-2-2-2-2-|-2-2-2-2-2-2-2-2-2-2-2-2-2-2-2-2-|
A| |o0-0-0-0-0-0-0-0-0-0-0-0-0-0-0-0-|-3-3-3-3-3-3-3-3-3-3-3-3-3-3-3-3o|
E| |-x-x-x-x-x-x-x-x-x-x-x-x-x-x-x-x-|-x-x-x-x-x-x-x-x-x-x-x-x-x-x-x-x-|
  1.
  2.

[Verse]
(1:41-2:03)

Guitar 1
e| |-0-0-0-0-0-0-0-0-0-0-0-0-0-0-0-0-|-0-0-0-0-0-0-0-0-0-0-0-0-0-0-0-0-|
B| |o1-1-1-1-1-1-1-1-1-1-1-1-1-1-1-1-|-1-1-1-1-1-1-1-1-1-1-1-1-1-1-1-1o|
G| |-2-2-2-2-2-2-2-2-2-2-2-2-2-2-2-2-|-0-0-0-0-0-0-0-0-0-0-0-0-0-0-0-0-|
D| |-2-2-2-2-2-2-2-2-2-2-2-2-2-2-2-2-|-2-2-2-2-2-2-2-2-2-2-2-2-2-2-2-2-|
A| |o0-0-0-0-0-0-0-0-0-0-0-0-0-0-0-0-|-3-3-3-3-3-3-3-3-3-3-3-3-3-3-3-3o|
E| |-x-x-x-x-x-x-x-x-x-x-x-x-x-x-x-x-|-x-x-x-x-x-x-x-x-x-x-x-x-x-x-x-x-|
  1.       And I cannot guess   What   we'll discover                  |
  2.       When we turn the dirt With  palms cupped like shovels But I |
                                 our                                   |
  3. Know our filthy hands       Can   wash one another's          And |
                                                                       |
Guitar 2                                                               |
e| |---------------------------------|---------------------------------|
B| |17--17--15--15--17--17--15--15---|20--20--18--18--20--20--18--18--o|
G| |---------------------------------|---------------------------------|
D| |--14--14--12--12--14--14--12--12-|--17--17--15--15--17--17--15--15-|
A| |o--------------------------------|--------------------------------o|
E| |---------------------------------|---------------------------------|

[Pre-Chorus]
(2:03-2:07)

Guitar 1
e| |-x-x-x-x-x-x-x-x-x-x-x-x-x-x-x-x-|
B| |-3-3-3-3-3-3-3-3-3-3-3-3-3-3-3-3-|
G| |-0-0-0-0-0-0-0-0-0-0-0-0-0-0-0-0-|
D| |-0-0-0-0-0-0-0-0-0-0-0-0-0-0-0-0-|
A| |-2-2-2-2-2-2-2-2-2-2-2-2-2-2-2-2-|
E| |-3-3-3-3-3-3-3-3-3-3-3-3-3-3-3-3-|
     Not one speck will remain   And |
                                     |
Guitar 2                             |
e| |---------------------------------|
B| |20--20--18--18--20--20--18--18---|
G| |---------------------------------|
D| |--17--17--15--15--17--17--15--15-|
A| |---------------------------------|
E| |---------------------------------|

[Chorus]
(2:07-2:37)

Guitar 1
e| |---------------------------------|---------------------------------|
B| |o--------------------------------|---------------------------------|
G| |-------0-------0-----------------|-------0-------0-----------------|
D| |-----2-------2-------------------|-----2-------2-------------------|
A| |o0-0-----3-3---------------------|-0-0-----3-3---------------------|
E| |-----------------3-3-3-3-3-3-3-3-|-----------------3-3-3-3-3-3-3-3-|
  1. I do    it's true    That there   Roads   Both of      But if the |
     believe              are          left in our shoes               |
                                                                       |
  2. So Brown  Hold you 'Cause you're  Song I want to hear    A melody |
     Eyes I'll near      the only                                      |
                                                                       |
Guitar 2                                                               |
e| |---------------------------------|---------------------------------|
B| |o--------------------------------|---------------------------------|
G| |------------12-------------------|------------12-------------------|
D| |--12----15-----14----------------|--12----15------14---------------|
A| |12-------------------------------|12-------------------------------|
E| |---------------------------------|---------------------------------|


Guitar 1
e| |---------------------------------|---------------------------------|
B| |---------------------------------|--------------------------------o|
G| |-----0---------------------------|---------------------------------|
D| |---2---------0-------------------|-2-2-------------0-0-0-0-0-0-0-0-|
A| |-0---------3---------------------|-0-0-3-3-3-3-3-3-2-2-2-2-2-2-2-2o|
E| |-------0-1-----0-3-3-3-3-3-3-3-3-|-0-0-0-0-1-1-3-3-3-3-3-3-3-3-3-3-|
  1. Silence You    hope    That it    too                             |
     takes   then I         takes me                                   |
                                                                       |
  2. Softly soaring through my atmosphere                        Where |
                                                                       |
Guitar 2                                                               |
e| |---------------------------------|---------------------------------|
B| |---------------------------------|--------------------------------o|
G| |---------------12----------------|---------------------------------|
D| |--12----15--14-------------------|---------------------------------|
A| |12-------------------------------|--------------------------------o|
E| |---------------------------------|---------------------------------|

[Bridge]
(2:37-2:48)

Guitar 1
e| |-0-0-0-0-0---0-0-0-0-----0-0-0-0-|-0-0-0-0-0---0-0-0-0-------------|
B| |-1-1-1-1-1---1-1-1-1-----1-1-1-1-|-1-1-1-1-1---1-1-1-1-------------|
G| |-2-2-2-2-2---2-2-2-2-----0-0-0-0-|-2-2-2-2-2---2-2-2-2-------------|
D| |-2-2-2-2-2---2-2-2-2-----2-2-2-2-|-2-2-2-2-2---2-2-2-2-------------|
A| |-0-0-0-0-0---0-0-0-0-----3-3-3-3-|-0-0-0-0-0---0-0-0-0-------------|
E| |-x-x-x-x-x---x-x-x-x-----x-x-x-x-|-x-x-x-x-x---x-x-x-x-------------|
     Soul meets body...                                          Where

Guitar 1
e| |-0-0-0-0-0---0-0-0-0-----0-0-0-0-|
B| |-1-1-1-1-1---1-1-1-1-----1-1-1-1-|
G| |-2-2-2-2-2---2-2-2-2-----0-0-0-0-|
D| |-2-2-2-2-2---2-2-2-2-----2-2-2-2-|
A| |-0-0-0-0-0---0-0-0-0-----3-3-3-3-|
E| |-x-x-x-x-x---x-x-x-x-----x-x-x-x-|
     Soul meets body...        Where

[Pre-Chorus]
(2:49-2:55)

Guitar 1
e| |-x-x-x-x-x-x-x-x-x-x-x-x-x-x-x-x-|-x-x-x-x-x-x-x-x-x-x-x-x-x-x-x-x-|
B| |-3-3-3-3-3-3-3-3-3-3-3-3-3-3-3-3-|-3-3-3-3-3-3-3-3-3-3-3-3-3-3-3-3-|
G| |-0-0-0-0-0-0-0-0-0-0-0-0-0-0-0-0-|-0-0-0-0-0-0-0-0-0-0-0-0-0-0-0-0-|
D| |-0-0-0-0-0-0-0-0-0-0-0-0-0-0-0-0-|-0-0-0-0-0-0-0-0-0-0-0-0-0-0-0-0-|
A| |-2-2-2-2-2-2-2-2-2-2-2-2-2-2-2-2-|-2-2-2-2-2-2-2-2-2-2-2-2-2-2-2-2-|
E| |-3-3-3-3-3-3-3-3-3-3-3-3-3-3-3-3-|-3-3-3-3-3-3-3-3-3-3-3-3-3-3-3-3-|
     Soul meets body...                                                |
Guitar 2                                                               |
e| |---------------------------------|---------------------------------|
B| |17--17--15--15--17--17--15--15---|20--20--18--18--20--20--18--18---|
G| |---------------------------------|---------------------------------|
D| |--14--14--12--12--14--14--12--12-|--17--17--15--15--17--17--15--15-|
A| |---------------------------------|---------------------------------|
E| |---------------------------------|---------------------------------|

[Chorus]
(2:56-3:25)

Guitar 1
e| |---------------------------------|---------------------------------|
B| |o--------------------------------|---------------------------------|
G| |-------0-------0-----------------|-------0-------0-----------------|
D| |-----2-------2-------------------|-----2-------2-------------------|
A| |o0-0-----3-3---------------------|-0-0-----3-3---------------------|
E| |-----------------3-3-3-3-3-3-3-3-|-----------------3-3-3-3-3-3-3-3-|
  1. I do    it's true    That there   Roads   Both of      But if the |
     believe              are          left in our shoes               |
                                                                       |
  2. So Brown  Hold you 'Cause you're  Song I want to hear    A melody |
     Eyes I'll near      the only                                      |
                                                                       |
Guitar 2                                                               |
e| |---------------------------------|---------------------------------|
B| |o--------------------------------|---------------------------------|
G| |------------12-------------------|------------12-------------------|
D| |--12----15-----14----------------|--12----15------14---------------|
A| |12-------------------------------|12-------------------------------|
E| |---------------------------------|---------------------------------|


Guitar 1
e| |---------------------------------|---------------------------------|
B| |---------------------------------|--------------------------------o|
G| |-----0---------------------------|---------------------------------|
D| |---2---------0-------------------|-2-2-------------0-0-0-0-0-0-0-0-|
A| |-0---------3---------------------|-0-0-3-3-3-3-3-3-2-2-2-2-2-2-2-2o|
E| |-------0-1-----0-3-3-3-3-3-3-3-3-|-0-0-0-0-1-1-3-3-3-3-3-3-3-3-3-3-|
  1. Silence You    hope    That it    too                             |
     takes   then I         takes me                                   |
                                                                       |
  2. Softly soaring through my atmosphere                     A melody |
                                                                       |
Guitar 2                                                               |
e| |---------------------------------|---------------------------------|
B| |---------------------------------|--------------------------------o|
G| |---------------12----------------|---------------------------------|
D| |--12----15--14-------------------|---------------------------------|
A| |12-------------------------------|--------------------------------o|
E| |---------------------------------|---------------------------------|

[Outro]
(3:26-3:50)

Guitar 2
e| |---------------------------------|---------------------------------|
B| |17--17--15--15--17--17--15--15---|17--17--15--15--17--17--15--15---|
G| |---------------------------------|---------------------------------|
D| |--14--14--12--12--14--14--12--12-|--14--14--12--12--14--14--12--12-|
A| |---------------------------------|---------------------------------|
E| |---------------------------------|---------------------------------|
     Softly soaring through my atmosphere                     A melody

Guitar 2
e| |---------------------------------|---------------------------------|
B| |17--17--15--15--17--17--15--15---|17--17--15--15--17--17--15--15---|
G| |---------------------------------|---------------------------------|
D| |--14--14--12--12--14--14--12--12-|--14--14--12--12--14--14--12--12-|
A| |---------------------------------|---------------------------------|
E| |---------------------------------|---------------------------------|
     Softly soaring through my atmosphere                     A melody

Guitar 2
e| |---------------------------------|---------------------------------|
B| |17--17--15--15--17--17--15--15---|---------------------------------|
G| |---------------------------------|---------------------------------|
D| |--14--14--12--12--14--14--12--12-|---------------------------------|
A| |---------------------------------|---------------------------------|
E| |---------------------------------|---------------------------------|
     Softly soaring through my atmosphere
  

************************************

| x  Mute note 

************************************
Suggest correction
comments
print report bad tab
26 comments total. Showing first comments. show 1 bad comment
+6 reply
thegreatindoors 41 Feb 06, 2006 08:59 AM

BTW, you make great tabs, keep it up

+2 reply
shotgunweddingx 10 Feb 07, 2006 03:33 PM

ya this tab is awsome, along with ur other tabs. this should be 5 stars

guest
You may want to rate the tab now too:
select rating
Wanna post a correction for this tab? Suggest correction