Oops, an error
Loading. Please wait.

Sound Of Settling Bass Tab

7,082 views 3 this week
1 commentread comment
1 2 3 4 5
2 more votes to show rating
add to favorites
launch autoscroll
font size
0
reset
guitar tuner
Autoscroll
slow
fast
+/-
esc
set tempo
stop
Help us to improve Ultimate-Guitar.com Take our survey!
×
Author
Difficulty
-------------------------------------------------------------------------------
			     The Sound Of Settling - Death Cab For Cutie
-------------------------------------------------------------------------------

Tabbed By : Nightmare_xxx
e-mail: ali.johnstone@mac.com

Tuning: Standard

Kind of odd timing, listen to the song to figure it out.

0:05
G|-----------------------------|
D|-----------------------------|
A|---------------------22-2-2--|
E|2-22-2-22-2-2-4-44-4---------|x3


0:23
G|-----------------------------|
D|-----------------------------|
A|--------------4-44-4-22-2-2--|
E|2-22-2-44-4-4----------------|x4


0:46
G|-------------------------------------------|
D|-------------------------------------------|
A|-------22-2-2----------------------22-2-2--|
E|4-44-4-----------2-2-22-2-2-44-4-4---------|


0:55
G|-----------------------------|
D|-----------------------------|
A|---------------------22-2-2--|
E|2-22-2-22-2-2-4-44-4---------|x4


1:16
G|-----------------------------|
D|-----------------------------|
A|--------------4-44-4-22-2-2--|
E|2-22-2-44-4-4----------------|x4

G|-----------------------------|
D|-----------------------------|
A|---------------------22-2-2--|
E|2-22-2-22-2-2-4-44-4---------|x4

G|----|
D|----|
A|----|
E|-2--|



| /  slide up
| \  slide down
| h  hammer-on
| p  pull-off
| ~  vibrato
| +  harmonic
| x  Mute note
===============================================================================
Suggest correction
Give kudos to tab author, rate the tab!
1 2 3 4 5
comments
print report bad tab
1 comment total.
0 reply
dreadnaught_9 10 May 08, 2008 12:38 PM

nice work. ^.^ *adds it to tabs* this is one of my favorite songs from death cab. :3

guest
You may want to rate the tab now too:
select rating
Wanna post a correction for this tab? Suggest correction