Oops, an error
Loading. Please wait.

Stability Tab

3,012 views 3 this week
no commentswrite comment
1 2 3 4 5
accurate
x 3
add to favorites
launch autoscroll
font size
0
reset
how to read this tab
guitar tuner
Autoscroll
slow
fast
+/-
esc
set tempo
stop
Help us to improve Ultimate-Guitar.com Take our survey!
×
Author
-Intro

e|-3-3----------3----------3--2--2-3-0---|
b|-3-5----------5----------3--3--0---1---|
g|-4-4----------4----------0--2--0---0---|
d|-5-5----------5----------0--0--2---2---|
a|-5-3----------3----------x--x--2---3---|
e|-3---0-5--2-3-----0-5--2-3--2--0-------|

e|-3--2--2-3-0--|
b|-3--3--0---1--|
g|-0--2--0---0--|
d|-0--0--2---2--|
a|-x--x--2---3--|
e|-3--2--0------|

~~~~~~~~~~~~~~~~~~~~~~~~~~~~~~~~~~~~~~~~
-verse 1

e|-------------------------------|
b|-------------------------------|
g|-------------------------------|
d|-------------------------------|
a|---10--2--3--3-3/7--10--2--3---|
e|-0---------------0-------------|

~~~~~~~~~~~~~~~~~~~~~~~~~~~~~~~~~~~~~~~~
-bridge

e|-0--2--0--0-|
b|-3--3--3--3-|
g|-0--2--0--0-|
d|-2--0--0--2-|
a|-2-----2--3-|
e|-0----------|

~~~~~~~~~~~~~~~~~~~~~~~~~~~~~~~~~~~~~~~
-verse 2

e|-------------------------------|
b|-------------------------------|
g|-------------------------------|
d|-------------------------------|
a|---10--2--3--3-3/7--10--2--3---|
e|-0---------------0-------------|

~~~~~~~~~~~~~~~~~~~~~~~~~~~~~~~~~~~~~~
-bridge

e|-0--2--0--0-|
b|-3--3--3--3-|
g|-0--2--0--0-|
d|-2--0--0--2-|
a|-2-----2--3-|
e|-0----------|

e|-3-2-0-0---|
b|-3-3-3-3---|
g|-0-2-0-0---|
d|-0-0-2-2---|
a|-x-x-2-3---|
e|-3-2-0-----|

~~~~~~~~~~~~~~~~~~~~~~~~~~~~~~~~~~~~~
-interlude


e|------------|
b|------------|
g|------------|
d|------------|
a|-3-5-7-7/10-|
e|-----0------|

e|------------|
b|------------|
g|------------|
d|------------|
a|-3-5-7-7/10-|
e|-----0------|

~~~~~~~~~~~~~~~~~~~~~~~~~~~~~~~~~~~~~
{verse}
~~~~~~~~~~~~~~~~~~~~~~~~~~~~~~~~~~~~~
{Bridge}
~~~~~~~~~~~~~~~~~~~~~~~~~~~~~~~~~~~~~

e|-2--0--0--------|
b|-3--3--0--------|
g|-2--0--0--------|
d|-0--2--2--------|
a|----3--2--/10---|
e|-------0--------|

e|--------------|
b|--------------|
g|--------------|
d|--------------|
a|-----2-3--3/7-|
e|-0--3-------0-|

~~~~~~~~~~~~~~~~~~~~~~~~~~~~~~~~~~~~~

-outro
--x2
e|--------------------------------|
b|--------------------------------|
g|-----12----14--12--11-----11----|
d|--12----12-------------12-------|
a|--------------------------------|
e|--------------------------------|

e|--------------------------------|
b|--------------------------------|
g|-----12--11------14--16--12-----|
d|--12---------12-----------------|
a|--------------------------------|
e|--------------------------------|
Suggest correction
Give kudos to tab author, rate the tab!
1 2 3 4 5
comments
print report bad tab
guest
You may want to rate the tab now too:
select rating
Wanna post a correction for this tab? Suggest correction