Oops, an error
Loading. Please wait.

Stable Song Chords

version 4
version 4

Whole song

1,515 views 6 this week
no commentswrite comment
1 2 3 4 5
2 more votes to show rating
add to favorites
launch autoscroll
font size
0
reset
transpose
0
reset
simplify chords
display chords
guitar tuner
Autoscroll
slow
fast
+/-
esc
set tempo
stop
Help us to improve Ultimate-Guitar.com Take our survey!
×
Author
-------------------------------------------------------------------------------
                             Stable Song – Death Cab For Cutie
-------------------------------------------------------------------------------

This is just how I play it. It’s not exact but oh well, you can make it your own. The 
intro is a just a simplified version of the verse. Hopefully you find this enjoyable and 
closer than the others.

Tuning:EADGBE

Verse:

e|-X-------------3---3--3---0--X-------------3---3--3---0--X-------2---3--3----|
B|-0----------0--5---5--3---0--0----------0--5---5--3---0--0-------0---0--0----|
G|-0----0--0--0--4---4--4---4--0----0--0--0--4---4--4---4--0---0---0---0--0----|
D|-0----0--0--0--5---5--5---5--0----0--0--0--5---5--5---5--0---0---2---2--2----|
A|-2----2--2--2--3---3--3---3--2----2--2--2--3---3--3---3--2---0---2---2--2----|
E|-3----3--3--3--X---X--X---X--3----3--3--3--X---X--X---X--3---2---0---0--0----|
   G            Cmaj7          G            Cmaj7    
      G  G/F# Em

G            Cmaj7
Time for the final bow,
G          Cmaj7
Rows of deserted houses,
G      G/F#          Em
All our stable mates highway bound.

G           Cmaj7
Give us our measly sum,
G           Cmaj7         G       G/F#
Getting the air inside my lungs is heavenly,
Em         G      G/F#         Em
Starting out, with nothing but crippling doubt.
C  D  Em  G x2

C     D    Em G   C   D  G
We'll rest easy,  jus-ti-fied.

G         Cmaj7
Suffered a swift defeat,
G           Cmaj7
I’ll endure countless repeats,
    G       G/F#        Em
The gift of memory's an awful curse,
     G      G/F#      Em
With age it just gets much worse,
    D       C   G Em
But I won't mind,
D       C   G  Em
I won't mind,
D       C   G  Em
I won't mind,
D       C   G
I won't mind.

Then something like the verse, and you're done
Suggest correction
Give kudos to tab author, rate the tab!
1 2 3 4 5
comments
print report bad tab
guest
You may want to rate the tab now too:
select rating
Wanna post a correction for this tab? Suggest correction