Oops, an error
Loading. Please wait.

Steadier Footing Tab

version 3
version 3

Interactive

1,494 views 3 this week
no commentswrite comment
1 2 3 4 5
please rate
add to favorites
launch autoscroll
font size
0
reset
how to read this tab
guitar tuner
Autoscroll
slow
fast
+/-
esc
set tempo
stop
Help us to improve Ultimate-Guitar.com Take our survey!
×
Author
This is what I got for this song. It's probably not perfect but it's close.


e--------------------------------------------------------|
B-----4~-----4~------0----4~------4~-----4~------0----4~-|
G-----4~------------------4~------4~------------------4~-|
D------------6~------6~------------------6~------6~------|
A-----2~-------------7~---2~------2~-------------7~---2~-|
E------------4~------------------------------------------|


e-----------------------------|
B-----4---5---5---8-----------|
G-------------6---9-----------|
D-----1---2-------------------|
A-------------4---7-----------|
E-----------------------------|

e--------------------------------------------------------|
B-----4~-----4~------0----4~------4~-----4~------0----4~-|
G-----4~------------------4~------4~------------------4~-|
D------------6~------6~------------------6~------6~------|
A-----2~-------------7~---2~------2~-------------7~---2~-|
E------------4~-------------------2~-------------7~---2~-|

e-----------------------------|
B-----4---5---5---8-----------|
G-------------6---9-----------|
D-----1---2-------------------|
A-------------4---7-----------|
E-----------------------------|

e--------------------------------------------------------------|
B--------------------------------------------------------------|
G----------8------8------6--4-------------8------8------6--4---|
D--------6------6------4----------------6------6------4--------|
A------4----4/7----7/2----------------4----4/7----7/2----------|
E--------------------------------------------------------------|
Suggest correction
Give kudos to tab author, rate the tab!
1 2 3 4 5
comments
print report bad tab
guest
You may want to rate the tab now too:
select rating
Wanna post a correction for this tab? Suggest correction