Oops, an error
Loading. Please wait.

Steadier Footing Tab

version 5
version 5

Interactive

2,849 views 1 this week
no commentswrite comment
1 2 3 4 5
1 last vote to show rating
add to favorites
launch autoscroll
font size
0
reset
how to read this tab
guitar tuner
Autoscroll
slow
fast
+/-
esc
set tempo
stop
Help us to improve Ultimate-Guitar.com Take our survey!
×
Difficulty
Capo
intermediate
4th fret
 Steadier Footing - Death Cab for Cutie
-------------------------------------------------------------------------------
Tabbed by: Jakub Racek
Email: jakelift@hotmail.com

Tuning: standard capo 4

e-------------------------------|
B-----0------0-------0-----0----|
G-----0--------------------0----| x2
D------------3-------2----------|
A-----3--------------3-----3----|
E------------0------------------|

e------------------------------|
B-----0------1-------1----8----|
G--------------------2----9----|  
D------------------------------|
A-----2------3-------0----7----|
E------------------------------|

e-------------------------------|
B-----0------0-------0-----0----|
G-----0--------------------0----| x2
D------------3-------2----------|
A-----3--------------3-----3----|
E------------0------------------|

e-------------------------------|
B-------------------------------|
G---------4-------4-------2-0---| x2
D-------3-------2-------0-------|
A-----0-----0-3-----3-----------|
E---------------------3---------|

e-------------------------------|
B-----0------0-------0-----0----|
G-----0--------------------0----| x2
D------------3-------2----------|
A-----3--------------3-----3----|
E------------0------------------|

e------------------------------|
B-----0------1-------1----8----|
G--------------------2----9----|  
D------------------------------|
A-----2------3-------0----7----|
E------------------------------|

e-------------------------------|
B-----0------0-------0-----0----|
G-----0--------------------0----| x2
D------------3-------2----------|
A-----3--------------3-----3----|
E------------0------------------|


e-------------------------------|
B-------------------------------|
G---------4-------4-------2-0---| x2
D-------3-------2-------0-------|
A-----0-----0-3-----3-----------|
E---------------------3---------|

Suggest correction
Give kudos to tab author, rate the tab!
1 2 3 4 5
comments
print report bad tab
guest
You may want to rate the tab now too:
select rating
Wanna post a correction for this tab? Suggest correction