Oops, an error
Loading. Please wait.

Steadier Footing Tab

version 7
version 7

Interactive

22,877 views 24 this week
13 commentsread comments
1 2 3 4 5
x 29
add to favorites
launch autoscroll
font size
0
reset
how to read this tab
guitar tuner
×
Best way to learn
"Steadier Footing"
Autoscroll
slow
fast
+/-
esc
set tempo
stop
Difficulty
Capo
intermediate
4th fret
Tuning: Standard capo 4

e|-------------------------------|
B|-----0------0-------0-----0----|
G|-----0--------------------0----| (x2)
D|------------2-------2----------|
A|--------------------3----------|
E|-----3------0-------------3----|

e|-------------------------------|
B|-----0------1-------1----8-----|
G|-----0------0-------2----9-----|  
D|-------------------------------|
A|-----2------3-------0----7-----|
E|-------------------------------|

e|-------------------------------|
B|-----0------0-------0-----0----|
G|-----0--------------------0----| (x2)
D|------------2-------2----------|
A|--------------------3----------|
E|-----3------0-------------3----|

e|-------------------------------|
B|-----0------1-------1----8-----|
G|-----0------0-------2----9-----|  
D|-------------------------------|
A|-----2------3-------0----7-----|
E|-------------------------------|

e|-------------------------------|
B|---------0-------0-------------|
G|-------------------------2-0---| (x2)
D|-------2---2---2---2----0------|
A|-----0-------3-----------------|
E|---------------------3---------|

e|-------------------------------|
B|-----0------0-------0-----0----|
G|-----0--------------------0----| (x2)
D|------------2-------2----------|
A|--------------------3----------|
E|-----3------0-------------3----|

e|-------------------------------|
B|---------0-------0-------------|
G|-------------------------2-0---| (x2)
D|-------2---2---2---2----0------|
A|-----0-------3-----------------|
E|---------------------3---------|
Suggest correction
comments
print report bad tab
13 comments total. Showing first comments.
0 reply
lackofcolor 388 Aug 07, 2007 10:38 AM

Absolutley Perfect.

0 reply
anonymousgoerge 10 Jan 01, 2008 06:23 PM

its awesome no doubt, but the end part and "the people we hav met in the lastfive years" part sounds a little diffrent i
think. you ca definetly hear him sliding, and i dont think it sounds so minor.

i play it lke
this

e-----|
B-----0-----0-----|
G-----2-0---|

D-----2---2\5--5---5---0-
----|
A-----0-----3-----|
E-----3-----|

0 reply
anonymousgoerge 10 Jan 01, 2008 06:31 PM

sorry, that last one was messed up, and this is just my two
cents.

e-----|
B-----0-----0-----|
G-----2-0---|
D----
---2---2\5---5---5---0---
--|
A-----0-----3-----|
E-----3-----|

guest
You may want to rate the tab now too:
select rating
Wanna post a correction for this tab? Suggest correction