Oops, an error
Loading. Please wait.

Styrofoam Plates Tab

version 2
version 2

Whole song

Interactive

7,015 views 6 this week
no commentswrite comment
1 2 3 4 5
x 4
add to favorites
launch autoscroll
font size
0
reset
how to read this tab
guitar tuner
Autoscroll
slow
fast
+/-
esc
set tempo
stop
Help us to improve Ultimate-Guitar.com Take our survey!
×
Author
Difficulty
novice
-------------------------------------------------------------------------------
                             Styrofoam Plates - Death Cab For Cutie
-------------------------------------------------------------------------------
Tabbed by: aaaron
Email: aaronelbur@gmail.com
Tuning: Standard


Part I
   x5
e|--------------------------------5--4---------------------------------------|
B|---------------------------------------------------------------------------|
G|-----------------2-----4-----4---------10--9-------------------------------|
D|--------9-----------0------------------10--9-------------------------------|
A|-----7-----7---------------------------8---7-------------------------------|
E|--5-----------2-----------0------------------------------------------------|


Part II
  x20
e|---------------------------------------------------------------------------|
B|---5-2---------------------------------------------------------------------|
G|-------4-1-----------------------------------------------------------------|
D|-----------2p1--4/6--------------------------------------------------------|
A|-0-------------------------------------------------------------------------|
E|---------------------------------------------------------------------------|

End of Part II

e|---------------------------------------------------------------------------|
B|---------------5-----------------------------------------------------------|
G|-0h1--1h2--2h4-------------------------------------------------------------|
D|---------------------------------------------------------------------------|
A|---------------------------------------------------------------------------|
E|---------------------------------------------------------------------------|

Part I
  x2
e|--------------------------------5--4---------------------------------------|
B|---------------------------------------------------------------------------|
G|-----------------2-----4-----4---------10--9-------------------------------|
D|--------9-----------0------------------10--9-------------------------------|
A|-----7-----7---------------------------8---7-------------------------------|
E|--5-----------2-----------0------------------------------------------------|

Part II
x3

e|---------------------------------------------------------------------------|
B|---5-2---------------------------------------------------------------------|
G|-------4-1-----------------------------------------------------------------|
D|-----------2p1--4/6--------------------------------------------------------|
A|-0-------------------------------------------------------------------------|
E|---------------------------------------------------------------------------|


e|---------------------------------------------------------------------------|
B|---5-2---------------------------------------------------------------------|
G|-------4-1-----------------------------------------------------------------|
D|-----------2-0-------------------------------------------------------------|
A|-0--------------7\4--------------------------------------------------------|
E|---------------------------------------------------------------------------|

  x6
e|---------------------------------------------------------------------------|
B|---5-2---------------------------------------------------------------------|
G|-------4-1-----------------------------------------------------------------|
D|-----------2p1--4/6--------------------------------------------------------|
A|-0-------------------------------------------------------------------------|
E|---------------------------------------------------------------------------|

| /  slide up
| \  slide down
| h  hammer-on
| p  pull-off
| ~  vibrato
| +  harmonic
| x  Mute note
===============================================================================
Suggest correction
comments
print report bad tab
guest
You may want to rate the tab now too:
select rating
Wanna post a correction for this tab? Suggest correction