Oops, an error
Loading. Please wait.

Talking Bird Bass Tab

version 2
version 2

Whole song

3,440 views 6 this week
no commentswrite comment
1 2 3 4 5
excellent!
x 7
add to favorites
launch autoscroll
font size
0
reset
guitar tuner
Autoscroll
slow
fast
+/-
esc
set tempo
stop
Help us to improve Ultimate-Guitar.com Take our survey!
×
Author
Band: Death Cab For A Cutie
Album: Narrow Stairs
Song: Talking Birds

Please rate

/ = slide up
\ = slide down

Man riff (repeat many times)

G|---------------------------------|
D|---------------------------------| 
A|-3-3-3-3/7-7-7-7/8-8-8-8-8-8-8-8-|
E|---------------------------------|

G|---------------------------------|
D|--------/5-5-5-5\3-3-3-3-3-3-3-3-| 
A|-3-3-3-3-------------------------|
E|---------------------------------|

Interlude (1:12)

G|---------------------------------|
D|-----------------5~--------------| 
A|-5~------------------------------|
E|---------------------------------|

Man riff (1:19) (repeat many times)

G|---------------------------------|
D|---------------------------------| 
A|-3-3-3-3/7-7-7-7/8-8-8-8-8-8-8-8-|
E|---------------------------------|

G|---------------------------------|
D|--------/5-5-5-5\3-3-3-3-3-3-3-3-| 
A|-3-3-3-3-------------------------|
E|---------------------------------|

Ending (2:46)

G|---------------------------------|
D|---------------------------------| 
A|-5-5-5-5-5-5-5-5-----------------|
E|-----------------3-3-3-3-3-3-3-3-|

G|---------------------------------|
D|-7-7-7-7-5-5-5-5-3-3-3-3-3-3-3-3-| (he might play this part 
A|---------------------------------|  an octave lower)
E|---------------------------------|

G|------------------------------------|
D|------------------------------------| 
A|-5~------------------------------3~-|
E|-----------------3~-----------------|
Suggest correction
comments
print report bad tab
guest
You may want to rate the tab now too:
select rating
Please do not post tabs as comments. Select "correction" instead!